PrimaNota.ru - самый крупный в мире бесплатный архив песенных текстов, аккордов, табулатур и нот


The Fabulous Thunderbirds - Rock With Me - бас-таба, видео

Регистрация Запомнить меня
Войти через:  Facebook Google Twitter Vk Yandex Mail.ru

The Fabulous Thunderbirds - Rock With Me - бас-таба, видео

Печатать
Просмотров: 90
Уроки эстрадного вокала в Санкт-Петербурге
Fabulous Thunderbirds

Rock with me 

Bass Tabs


Bassist(s): 
- Randy Bermudes (2007- ...)
- Preston Hubbard (1985-1992)
- Keith Ferguson (1976-1985)

Tuning : EADG
Tempo: 131  bpm 
Key signature:  E

Intro: 00:00 (Harp / Bass / Drums)
G|----------6-|----------6-||----------6-9-6------|-
D|----6-6-9---|----6-6-9---||----6-6-9-------9-6--|-
A|6/7---------|6/7---------||6/7------------------|- 
E|------------|------------||---------------------|-

G|------------|------------||----------6-|----------6-|-
D|----------4-|----------4-||----6-6-9---|----6-6-9---|-
A|----4-4-7---|----4-4-7---||6/7---------|6/7---------|- 
E|4/5---------|4/5---------||------------|------------|-

G|------------|------------||----------6--9-7-6---|-
D|----------6-|----------4-||----6-6-9----------9-|-
A|----6-6-9---|----4-4-7---||6/7------------------|- 
E|6/7---------|4/5---------||---------------------|-


Verse1: 00:22
G|----------6-|----------6-||----------6-9-6------|-
D|----6-6-9---|----6-6-9---||----6-6-9-------9-6--|-
A|6/7---------|6/7---------||6/7------------------|- 
E|------------|------------||---------------------|-
Come on baby and Rock with me tonight,
G|------------|------------||----------6-|----------6-|-
D|----------4-|----------4-||----6-6-9---|----6-6-9---|-
A|----4-4-7---|----4-4-7---||6/7---------|6/7---------|- 
E|4/5---------|4/5---------||------------|------------|-
Come on baby and rock with me tonight,
G|------------|------------||----------6--9-7-6---|-
D|----------6-|----------4-||----6-6-9----------9-|-
A|----6-6-9---|----4-4-7---||6/7------------------|- 
E|6/7---------|4/5---------||---------------------|-
Well, you're so pretty and the moon is shining bright.


Verse1: 00:44
G|----------6-|----------6-||----------6-9-6------|-
D|----6-6-9---|----6-6-9---||----6-6-9-------9-6--|-
A|6/7---------|6/7---------||6/7------------------|- 
E|------------|------------||---------------------|-
Well, baby,baby,baby take a swing with me,
G|------------|------------||----------6-|----------6-|-
D|----------4-|----------4-||----6-6-9---|----6-6-9---|-
A|----4-4-7---|----4-4-7---||6/7---------|6/7---------|- 
E|4/5---------|4/5---------||------------|------------|-
Well, baby,baby,baby take a swing with me,
G|------------|------------||----------6--9-7-6---|-
D|----------6-|----------4-||----6-6-9----------9-|-
A|----6-6-9---|----4-4-7---||6/7------------------|- 
E|6/7---------|4/5---------||---------------------|-
I'll treat you right baby, you just wait and see.

Instrumental: 01:06 (Harp)
G|----------6-|----------6-||----------6--9-7-6---|-
D|----6-6-9---|----6-6-9---||----6-6-9----------9-|-
A|6/7---------|6/7---------||6/7------------------|- 
E|------------|------------||---------------------|-

G|------------|------------||----------6-|----------6-|-
D|----------4-|----------4-||----6-6-9---|----6-6-9---|-
A|----4-4-7---|----4-4-7---||6/7---------|6/7---------|- 
E|4/5---------|4/5---------||------------|------------|-

G|------------|------------||----------6--9-7-6---|-
D|----------6-|----------4-||----6-6-9----------9-|-
A|----6-6-9---|----4-4-7---||6/7------------------|- 
E|6/7---------|4/5---------||---------------------|-

Verse3: 00:44
G|----------6-|----------6-||----------6-9-6------|-
D|----6-6-9---|----6-6-9---||----6-6-9-------9-6--|-
A|6/7---------|6/7---------||6/7------------------|- 
E|------------|------------||---------------------|-
Well, baby,baby,baby take a swing with me,
G|------------|------------||----------6-|----------6-|-
D|----------4-|----------4-||----6-6-9---|----6-6-9---|-
A|----4-4-7---|----4-4-7---||6/7---------|6/7---------|- 
E|4/5---------|4/5---------||------------|------------|-
Well, baby,baby,baby take a swing with me,
G|------------|------------||----------6--9-7-6---|-
D|----------6-|----------4-||----6-6-9----------9-|-
A|----6-6-9---|----4-4-7---||6/7------------------|- 
E|6/7---------|4/5---------||---------------------|-
I'll treat you right baby, you just wait and see.


Verse4: 00:44
G|----------6-|----------6-||----------6-9-6------|-
D|----6-6-9---|----6-6-9---||----6-6-9-------9-6--|-
A|6/7---------|6/7---------||6/7------------------|- 
E|------------|------------||---------------------|-
Well, rock me in the evening and roll me late at night,
G|------------|------------||----------6-|----------6-|-
D|----------4-|----------4-||----6-6-9---|----6-6-9---|-
A|----4-4-7---|----4-4-7---||6/7---------|6/7---------|- 
E|4/5---------|4/5---------||------------|------------|-
Well, rock me in the evening and roll me late at night,
G|------------|------------||----------6--9-7-6---|-
D|----------6-|----------4-||----6-6-9----------9-|-
A|----6-6-9---|----4-4-7---||6/7------------------|- 
E|6/7---------|4/5---------||---------------------|-
Well roll me baby, I know you roll me right.


Instrumental / outro: 01:06 (Harp)
G|----------6-|----------6-||----------6--9-7-6---|-
D|----6-6-9---|----6-6-9---||----6-6-9----------9-|-
A|6/7---------|6/7---------||6/7------------------|- 
E|------------|------------||---------------------|-

G|------------|------------||----------6-|----------6-|-
D|----------4-|----------4-||----6-6-9---|----6-6-9---|-
A|----4-4-7---|----4-4-7---||6/7---------|6/7---------|- 
E|4/5---------|4/5---------||------------|------------|-

G|------------|------------||----------6--9--6----|-
D|----------6-|----------4-||----6--9-------------|-
A|----6-6-9---|----4-4-7---||6/7---------------7~-|- 
E|6/7---------|4/5---------||---------------------|-


End: 02:38



Tablature Legend ----------------  
| S  slap 
| P  pop 
| x  mute note 
| /  slide up 
| \  slide down 
| h  hammer-on 
| p  pull-off 
| g  grace note 
| ~  vibrato 
| ^  brush up
Добавлено: 16.12.2015
Другие материалы по этой песне:
  • Аккорды и текст

Страница создана 16.12.2015
http://primanota.ru/the-fabulous-thunderbirds/rock-with-me-chords.htm
Привет, Гость.
Предлагаем пройти революционный курс по гитаре.
Подарок от PrimaNota.Ru, забирай!