PrimaNota.ru - самый крупный в мире бесплатный архив песенных текстов, аккордов, табулатур и нот


The Fabulous Thunderbirds - My Babe - бас-таба, видео

Регистрация Запомнить меня
Войти через:  Facebook Google Twitter Vk Yandex Mail.ru

The Fabulous Thunderbirds - My Babe - бас-таба, видео

Печатать
Просмотров: 107
Fabulous Thunderbird
My Babe


Bass Tabs


Bassist(s):
- Randy Bermudes (2007- ...)
- Preston Hubbard (1985-1992)
- Keith Ferguson (1976-1985)

Tuning : EADG
Tempo: 161 bpm

Key signature: G

Intro: 00:00
G|----------|----------||----------------------|
D|--------2-|--------2-||---------22-5-2-------|
A|---22-5---|---22-5---||----22-5---------5-2--|
E|23--------|23--------||-23-------------------|

Verse1: 00:05
G|----------|----------||----------------------|
D|--------2-|--------2-||---------2--5-3-2-----|
A|---22-5---|---22-5---||----22-5-----------5--|
E|23--------|23--------||-23-------------------|
my babe, my babe, my babe, my babe
She's comin' back home,
G|--------2-|--------2-||----------------------|
D|---22-5---|---22-5---||---------22-5-2-------|
A|23--------|23--------||----22-5---------5-2--|
E|----------|----------||-23-------------------|
yeah my babe
She's comin' back home to me, you'll see
G|--------4-|--------2-||----------------------|
D|---44-7---|---22-5---||---------22-5-2-------|
A|45--------|23--------||----22-5---------5-2--|
E|----------|----------||-23-------------------|
My baby's comin' back, she's comin' back home to me
My babe


Verse2: 00:23
G|----------|----------||----------------------|
D|--------2-|--------2-||---------2--5-3-2-----|
A|---22-5---|---22-5---||----22-5-----------5--|
E|23--------|23--------||-23-------------------|
She's got big blue eyes and long black hair
My babe, my babe
G|--------2-|--------2-||----------------------|
D|---22-5---|---22-5---||---------22-5-2-------|
A|23--------|23--------||----22-5---------5-2--|
E|----------|----------||-23-------------------|
She's got big blue eyes and long black hair
My babe, my babe
G|--------4-|--------2-||----------------------|
D|---44-7---|---22-5---||---------22-5-2-------|
A|45--------|23--------||----22-5---------5-2--|
E|----------|----------||-23-------------------|
She got a short fat fanny, anythi-ing you need
My babe


Instrumental: 00:42 (play X2)
G|----------|----------||----------------------|
D|--------2-|--------2-||---------2--5-3-2-----|
A|---22-5---|---22-5---||----22-5-----------5--|
E|23--------|23--------||-23-------------------|

G|--------2-|--------2-||----------------------|
D|---22-5---|---22-5---||---------22-5-2-------|
A|23--------|23--------||----22-5---------5-2--|
E|----------|----------||-23-------------------|

G|--------4-|--------2-||----------------------|
D|---44-7---|---22-5---||---------22-5-2-------|
A|45--------|23--------||----22-5---------5-2--|
E|----------|----------||-23-------------------|


Verse3: 01:17
G|----------|----------||----------------------|
D|--------2-|--------2-||---------2--5-3-2-----|
A|---22-5---|---22-5---||----22-5-----------5--|
E|23--------|23--------||-23-------------------|
Oh, when she walks down the street
All the birdies go tweet-tweet-tweet, my babe
G|--------2-|--------2-||----------------------|
D|---22-5---|---22-5---||---------22-5-2-------|
A|23--------|23--------||----22-5---------5-2--|
E|----------|----------||-23-------------------|
Oh, when she walks down the street
All the birdies go tweet-tweet-tweet, my babe
G|--------4-|--------2-||----------------------|
D|---44-7---|---22-5---||---------22-5-2-------|
A|45--------|23--------||----22-5---------5-2--|
E|----------|----------||-23-------------------|
She got a short fat fanny, anythi-ing you need
My babe

Verse4: 01:35
G|----------|----------||----------------------|
D|--------2-|--------2-||---------2--5-3-2-----|
A|---22-5---|---22-5---||----22-5-----------5--|
E|23--------|23--------||-23-------------------|
My babe, my babe, my babe, my babe
She's comin' back home, yeah my babe
G|--------2-|--------2-||----------------------|
D|---22-5---|---22-5---||---------22-5-2-------|
A|23--------|23--------||----22-5---------5-2--|
E|----------|----------||-23-------------------|
he's comin' back home to me, you'll see
She got a short fat fanny, anythi-ing you need
G|--------4-|--------2-||----------------------|
D|---44-7---|---22-5---||---------22-5-2-------|
A|45--------|23--------||----22-5---------5-2--|
E|----------|----------||-23-------------------|
My babe,

Verse5: 01:53
G|----------|----------||----------------------|
D|--------2-|--------2-||---------2--5-3-2-----|
A|---22-5---|---22-5---||----22-5-----------5--|
E|23--------|23--------||-23-------------------|
My babe, my babe, my babe, my babe
She's comin' back home, yeah my babe
G|--------2-|--------2-||----------------------|
D|---22-5---|---22-5---||---------22-5-2-------|
A|23--------|23--------||----22-5---------5-2--|
E|----------|----------||-23-------------------|
he's comin' back home to me, you'll see
My baby's comin' back, she's comin' back home to me
G|--------4-|--------2-||----------------------|
D|---44-7---|---22-5---||---------22-5-2-------|
A|45--------|23--------||----22-5---------5-2--|
E|----------|----------||-23-------------------|
My babe,


Instrumental / Outro: 02:11 (play X2)
G|----------|----------||----------------------|
D|--------2-|--------2-||---------2--5-3-2-----|
A|---22-5---|---22-5---||----22-5-----------5--|
E|23--------|23--------||-23-------------------|

G|--------2-|--------2-||----------------------|
D|---22-5---|---22-5---||---------22-5-2-------|
A|23--------|23--------||----22-5---------5-2--|
E|----------|----------||-23-------------------|

G|--------4-|--------2-||----------------------|
D|---44-7---|---22-5---||---------22-5-2-------|
A|45--------|23--------||----22-5---------5-2--|
E|----------|----------||-23-------------------|


Outro:
G|----------|----------||----------------------|
D|--------2-|--------2-||---------2--5-3-2-----|
A|---22-5---|---22-5---||----22-5-----------5--|
E|23--------|23--------||-23-------------------|

G|--------2-|--------2-||----------------------|
D|---22-5---|---22-5---||---------22-5-2-------|
A|23--------|23--------||----22-5---------5-2--|
E|----------|----------||-23-------------------|

G|--------4-|--------2-||----------------------|
D|---44-7---|---22-5---||----------2-5-2-------|
A|45--------|23--------||----22-5---------5----|
E|----------|----------||-23----------------3~-|

End: 02:52


Tablature Legend ----------------
| S  slap
| P  pop
| .  full stop
| x  mute note
| /  slide up
| \  slide down
| h  hammer-on
| p  pull-off
| g  grace note
| ~  vibrato
| ^  brush up


Ref scale: G
G|------------------||-------------------|
D|-------2-5-2------||-------2-5-2-------|
A|---2-5-------5-2--||---2-5-------5-2---|
E|-3----------------||-3-----------------|

G|-------2-5-2------||-------2-5-2-------|
D|---2-5-------5-2--||---2-5-------5-2---|
A|-3----------------||-3-----------------|
E|------------------||-------------------|

G|------------------||-------------------|
D|-------2-5-2------||-------2-5-2-------|
A|---2-5-------5-2--||---2-5-------5-2---|
E|-3----------------||-3-----------------|

G|-------4-7-4------||-------2-5-2-------|
D|---4-7-------7-4--||---2-5-------5-2---|
A|-5----------------||-3-----------------|
E|------------------||-------------------|

G|------------------||-------------------|
D|-------2-5-2------||-------2-5-2-------|
A|---2-5-------5-2--||---2-5-------5-2---|
E|-3----------------||-3-----------------|
Добавлено: 16.12.2015
Другие материалы по этой песне:
  • Аккорды и текст

Страница создана 16.12.2015
http://primanota.ru/the-fabulous-thunderbirds/my-babe-chords.htm
Привет, Гость.
Предлагаем пройти революционный курс по гитаре.
Подарок от PrimaNota.Ru, забирай!