PrimaNota.ru - самый крупный в мире бесплатный архив песенных текстов, аккордов, табулатур и нот


The Fabulous Thunderbirds - Look At That - бас-таба, видео

Регистрация Запомнить меня
Войти через:  Facebook Google Twitter Vk Yandex Mail.ru

The Fabulous Thunderbirds - Look At That - бас-таба, видео

Печатать
Просмотров: 137
Уроки эстрадного вокала в Санкт-Петербурге
Fabulous Thunderbirds
Look at that 

Bass Tabs

Bassist(s): 
- Randy Bermudes (2007- ...)
- Preston Hubbard (1985-1992)
- Keith Ferguson (1976-1985)

Tuning : EADG
Tempo: 152 bpm 
Key signature: G


Intro: (Harmonica playing): 00:03
G|-----------||-----------||------------------------|-
D|---------2-||---------2-||----------2-2-5--2------|-
A|---2-2-5---||---2-2-5---||---2-2-5-----------5-2--|- 
E|-3---------||-3---------||-3----------------------|-

G|-----------||-----------||-
D|---------2-||---------2-||-
A|---2-2-5---||---2-2-5---||- 
E|-3---------||-3---------||-

G|---------2-||---------2-||----------2-2-5--2------|-
D|---2-2-5---||---2-2-5---||---2-2-5-----------5-2--|-
A|-3---------||-3---------||-3----------------------|- 
E|-----------||-----------||------------------------|-

G|-----------||-----------||------------------------|-
D|-----------||-----------||----------2-2-5--2------|-
A|-----------||-----------||---2-2-5-----------5-2--|-
E|-3.--------||-----------||-3----------------------|-

 
Verse1: 00:25
Been to a party on Saturday night
G|-----------||-----------||------------------------|-
D|---------2-||---------2-||----------2-2-5--2------|-
A|---2-2-5---||---2-2-5---||---2-2-5-----------5-2--|- 
E|-3---------||-3---------||-3----------------------|-

Lookin' real cool and dressed just right
G|-----------||-----------||------------------------|-
D|---------2-||---------2-||----------2-2-5--2------|-
A|---2-2-5---||---2-2-5---||---2-2-5-----------5-2--|- 
E|-3---------||-3---------||-3----------------------|-

Well, I save my money every week
G|---------2-||---------2-||----------2-2-5--2------|-
D|---2-2-5---||---2-2-5---||---2-2-5-----------5-2--|-
A|-3---------||-3---------||-3----------------------|-
E|-----------||-----------||------------------------|-

Just so I can spend it on those fine chicks
G|-----------||-----------||------------------------|-
D|---------2-||---------2-||----------2-2-5---------|-
A|---2-2-5---||---2-2-5---||---2-2-5---------2-3-4--|-
E|-3---------||-3---------||-3----------------------|-

I got out of my car and opened the door
G|---------4-||---------4-||------------------------|-
D|---4-4-7---||---4-4-7---||------------------------|-
A|-5---------||-5---------||------------------------|-
E|-----------||-----------||------------------------|-

You know what I was lookin' for
G|------------------------||-----------||-----------||-
D|------------------------||---------2-||---------2-||-
A|------------------------||---2-2-5---||---2-2-5---||- 
E|-3.---------------------||-3---------||-3---------||-


Verse2: 00:59
Look at that blonde with the red skin tights
G|-----------||-----------||------------------------|-
D|---------2-||---------2-||----------2-2-5--2------|-
A|---2-2-5---||---2-2-5---||---2-2-5-----------5-2--|- 
E|-3---------||-3---------||-3----------------------|-

Don't go with her, she's the one that bites
G|-----------||-----------||------------------------|-
D|---------2-||---------2-||----------2-2-5--3-2----|-
A|---2-2-5---||---2-2-5---||---2-2-5-------------5--|- 
E|-3---------||-3---------||-3----------------------|-

Well, that fine, fine thing with the short, short skirt
G|---------2-||---------2-||----------2-2-5--2------|-
D|---2-2-5---||---2-2-5---||---2-2-5-----------5-2--|-
A|-3---------||-3---------||-3----------------------|-
E|-----------||-----------||------------------------|-

Yell she ain't attached and she likes to flirt
G|-----------||-----------||------------------------|-
D|---------2-||---------2-||----------2-2-5---------|-
A|---2-2-5---||---2-2-5---||---2-2-5---------2-3-4--|-
E|-3---------||-3---------||-3----------------------|-

Well a whole lot of women is were it's at
G|---------4-||---------4-||-
D|---4-4-7---||---4-4-7---||-
A|-5---------||-5---------||-
E|-----------||-----------||-

Hey know boy's won't ya look at that
G|------------------------||-
D|------------------------||-
A|------------------------||-
E|-3.---------------------||-


Instrumental(1): (Harmonica playing): 01:31
G|-----------||-----------||------------------------|-
D|---------2-||---------2-||----------2-2-5--2------|-
A|---2-2-5---||---2-2-5---||---2-2-5-----------5-2--|- 
E|-3---------||-3---------||-3----------------------|-

G|-----------||-----------||------------------------|-
D|---------2-||---------2-||----------2-2-5--3-2----|-
A|---2-2-5---||---2-2-5---||---2-2-5-------------5--|- 
E|-3---------||-3---------||-3----------------------|-

G|---------2-||---------2-||----------2-2-5--3-2----|-
D|---2-2-5---||---2-2-5---||---2-2-5-------------5--|-
A|-3---------||-3---------||-3----------------------|- 
E|-----------||-----------||------------------------|-

G|-----------||-----------||------------------------|-
D|-----------||-----------||----------2-2-5--2------|-
A|-----------||-----------||---2-2-5-----------5-2--|-
E|-3.--------||-----------||-3----------------------|-

Instrumental(bis): (Guitar riff): 01:56
G|-----------||-----------||------------------------|-
D|---------2-||---------2-||----------2-2-5--3-2----|-
A|---2-2-5---||---2-2-5---||---2-2-5-------------5--|- 
E|-3---------||-3---------||-3----------------------|-

G|---------2-||---------2-||------------------------|-
D|---2-2-5---||---2-2-5---||----------2-2-5---------|-
A|-3---------||-3---------||---2-2-5---------2-3-4--|- 
E|-----------||-----------||-3----------------------|-

G|---------4-||---------4-||-----------||-----------|-
D|---4-4-7---||---4-4-7---||-----------||-5--3--2---|-
A|-5---------||-5---------||-----------||---------5-|-
E|-----------||-----------||-3.--------||-----------|-


Break: 02:15
Now I don't know which way to turn
Everywhere I look my eye balls burn
G|---------2-||---------2-||------------------------|-
D|---2-2-5---||---2-2-5---||----------2-2-5--2------|-
A|-3---------||-3---------||---2-2-5-----------5-2--|- 
E|-----------||-----------||-3----------------------|-

Short dress, long dress, skinny and fat
Look at that, look at that, look at that, look at that
G|---------2-||---------2-||-----------||-----------|-
D|---2-2-5---||---2-2-5---||-----------||-----------|-
A|-3---------||-3---------||-5.--------||-----------|-
E|-----------||-----------||-----------||-----------|-


Verse3: 02:28
See them twins with the fishnet hose
G|-----------||-----------||------------------------|-
D|---------2-||---------2-||----------2-2-5--2------|-
A|---2-2-5---||---2-2-5---||---2-2-5-----------5-2--|- 
E|-3---------||-3---------||-3----------------------|-

I'd take either one or both of those
G|-----------||-----------||------------------------|-
D|---------2-||---------2-||----------2-2-5--3-2----|-
A|---2-2-5---||---2-2-5---||---2-2-5-------------5--|- 
E|-3---------||-3---------||-3----------------------|-

We'll Sally is the best, lookin' long and lean
G|---------2-||---------2-||----------2-2-5--2------|-
D|---2-2-5---||---2-2-5---||---2-2-5-----------5-2--|-
A|-3---------||-3---------||-3----------------------|-
E|-----------||-----------||------------------------|-

She's got the key to my lovin' machine
G|-----------||-----------||------------------------|-
D|---------2-||---------2-||----------2-2-5---------|-
A|---2-2-5---||---2-2-5---||---2-2-5---------2-3-4--|-
E|-3---------||-3---------||-3----------------------|-

Now all these girls lookin' just right
G|---------4-||---------4-||-
D|---4-4-7---||---4-4-7---||-
A|-5---------||-5---------||-
E|-----------||-----------||-

With a hip shakin' body on a Saturday night
G|------------------------||-
D|------------------------||-
A|------------------------||-
E|-3.---------------------||-


Outro: 02:59 (Harmonica playing)
G|-----------||-----------||------------------------|-
D|---------2-||---------2-||----------2-2-5--2------|-
A|---2-2-5---||---2-2-5---||---2-2-5-----------5-2--|- 
E|-3---------||-3---------||-3----------------------|-


G|-----------||-----------||------------------------|-
D|---------2-||---------2-||----------2-2-5--3-2----|-
A|---2-2-5---||---2-2-5---||---2-2-5-------------5--|- 
E|-3---------||-3---------||-3----------------------|-


G|---------2-||---------2-||----------2-2-5--2------|-
D|---2-2-5---||---2-2-5---||---2-2-5-----------5-2--|-
A|-3---------||-3---------||-3----------------------|-
E|-----------||-----------||------------------------|-


G|-----------||-----------||------------------------|-
D|---------2-||-5--3--2---||------------------------|-
A|---2-2-5---||---------5-||------------------------|-
E|-3---------||-----------||-3~~~~~~----------------|-


End: 03:27



Tablature Legend ----------------  
| S  slap 
| P  pop 
| x  mute note
| .  full stop
| /  slide up 
| \  slide down 
| h  hammer-on 
| p  pull-off 
| g  grace note 
| ~  vibrato 
| ^  brush up
Добавлено: 11.12.2015
Другие материалы по этой песне:
  • Аккорды и текст

Страница создана 11.12.2015
http://primanota.ru/the-fabulous-thunderbirds/look-at-that-chords.htm
Привет, Гость.
Предлагаем пройти революционный курс по гитаре.
Подарок от PrimaNota.Ru, забирай!