PrimaNota.ru - самый крупный в мире бесплатный архив песенных текстов, аккордов, табулатур и нот


The Fabulous Thunderbirds - Im Sorry - бас-таба, видео

Регистрация Запомнить меня
Войти через:  Facebook Google Twitter Vk Yandex Mail.ru

The Fabulous Thunderbirds - Im Sorry - бас-таба, видео

Печатать
Просмотров: 136
Уроки эстрадного вокала в Санкт-Петербурге
Fabulous Thunderbirds 
I'm sorry

Bass Tabs


Bassist(s): 
- Randy Bermudes (2007- ...)
- Preston Hubbard (1985-1992)
- Keith Ferguson (1976-1985)

Tuning : EADG
Tempo: 125 bpm 
Key: G

Intro: 00:01 (Drums opening) 
G|------------------||------------------|-
D|-----5-5/3-3/-----||-----5-5/3-3/-----|-
A|-------------5-5/-||-------------5-5/-|- X2
E|23-3/-------------||23-3/-------------|-

G|-----5-5/3-3/-----||-----5-5/3-3/-----|-
D|-------------5-5/-||-------------5-5/-|- 
A|23-3/------------3||23-3/-------------|-
E|------------------||------------------|-

G|------------------||------------------|-
D|-----5-5/3-3/-----||-----5-5/3-3/-----|-
A|-------------5-5/-||-------------5-5/-|- 
E|23-3/-------------||23-3/-------------|-

G|-----7-7/5-5/-----||-----5-5/3-3/-----|-
D|-------------7-7/-||-------------5-5/-|-
A|45-5/-------------||23-3/-------------|- 
E|------------------||------------------|-

G|------------------||------------------|-
D|-----5-5/3-3/-----||-----5-5/3-3/-----|-
A|-------------5-5/-||-------------5-5/-|- 
E|23-3/-------------||23-3/-------------|-

Verse1: 00:24 "I'm sorry..." 
G|------------------||------------------|-
D|-----5-5/3-3/-----||-----5-5/3-3/-----|-
A|-------------5-5/-||-------------5-5/-|- X2
E|23-3/-------------||23-3/-------------|-

G|-----5-5/3-3/-----||-----5-5/3-3/-----|-
D|-------------5-5/-||-------------5-5/-|- 
A|23-3/------------3||23-3/-------------|-
E|------------------||------------------|-

G|------------------||------------------|-
D|-----5-5/3-3/-----||-----5-5/3-3/-----|-
A|-------------5-5/-||-------------5-5/-|- 
E|23-3/-------------||23-3/-------------|-

G|-----7-7/5-5/-----||-----5-5/3-3/-----|-
D|-------------7-7/-||-------------5-5/-|-
A|45-5/-------------||23-3/-------------|- 
E|------------------||------------------|-

G|------------------||------------------|-
D|-----5-5/3-3/-----||-----5-5/3-3/-----|-
A|-------------5-5/-||-------------5-5/-|- 
E|23-3/-------------||23-3/-------------|-


Verse2: 00:47 "Baby kiss me..." 
G|------------------||------------------|-
D|-----5-5/3-3/-----||-----5-5/3-3/-----|-
A|-------------5-5/-||-------------5-5/-|- X2
E|23-3/-------------||23-3/-------------|-

G|-----5-5/3-3/-----||-----5-5/3-3/-----|-
D|-------------5-5/-||-------------5-5/-|- 
A|23-3/------------3||23-3/-------------|-
E|------------------||------------------|-

G|------------------||------------------|-
D|-----5-5/3-3/-----||-----5-5/3-3/-----|-
A|-------------5-5/-||-------------5-5/-|- 
E|23-3/-------------||23-3/-------------|-

G|-----7-7/5-5/-----||-----5-5/3-3/-----|-
D|-------------7-7/-||-------------5-5/-|-
A|45-5/-------------||23-3/-------------|- 
E|------------------||------------------|-

G|------------------||------------------|-
D|-----5-5/3-3/-----||-----5-5/3-3/-----|-
A|-------------5-5/-||-------------5-5/-|- 
E|23-3/-------------||23-3/-------------|-


Instrumental: 01:10 (Play X2) 
G|------------------||------------------|-
D|-----5-5/3-3/-----||-----5-5/3-3/-----|-
A|-------------5-5/-||-------------5-5/-|- X2
E|23-3/-------------||23-3/-------------|-

G|-----5-5/3-3/-----||-----5-5/3-3/-----|-
D|-------------5-5/-||-------------5-5/-|- 
A|23-3/------------3||23-3/-------------|-
E|------------------||------------------|-

G|------------------||------------------|-
D|-----5-5/3-3/-----||-----5-5/3-3/-----|-
A|-------------5-5/-||-------------5-5/-|- 
E|23-3/-------------||23-3/-------------|-

G|-----7-7/5-5/-----||-----5-5/3-3/-----|-
D|-------------7-7/-||-------------5-5/-|-
A|45-5/-------------||23-3/-------------|- 
E|------------------||------------------|-

G|------------------||------------------|-
D|-----5-5/3-3/-----||-----5-5/3-3/-----|-
A|-------------5-5/-||-------------5-5/-|- 
E|23-3/-------------||23-3/-------------|-


Verse3: 01:57 "Baby kiss me..." 
G|------------------||------------------|-
D|-----5-5/3-3/-----||-----5-5/3-3/-----|-
A|-------------5-5/-||-------------5-5/-|- X2
E|23-3/-------------||23-3/-------------|-

G|-----5-5/3-3/-----||-----5-5/3-3/-----|-
D|-------------5-5/-||-------------5-5/-|- 
A|23-3/------------3||23-3/-------------|-
E|------------------||------------------|-

G|------------------||------------------|-
D|-----5-5/3-3/-----||-----5-5/3-3/-----|-
A|-------------5-5/-||-------------5-5/-|- 
E|23-3/-------------||23-3/-------------|-

G|-----7-7/5-5/-----||-----5-5/3-3/-----|-
D|-------------7-7/-||-------------5-5/-|-
A|45-5/-------------||23-3/-------------|- 
E|------------------||------------------|-

G|------------------||------------------|-
D|-----5-5/3-3/-----||-----5-5/3-3/-----|-
A|-------------5-5/-||-------------5-5/-|- 
E|23-3/-------------||23-3/-------------|-


Verse3 / Outro: 02:20 "I'm sorry..."  Wind instruments playing...
G|------------------||------------------|-
D|-----5-5/3-3/-----||-----5-5/3-3/-----|-
A|-------------5-5/-||-------------5-5/-|- 
E|23-3/-------------||23-3/-------------|-

G|------------------||------------------|-
D|-----5-5/3-3/-----||-----5-5/3-3/-----|-
A|-------------5-5/-||-------------5-5/-|- 
E|23-3/-------------||23-3/-------------|-

G|-----5-5/3-3/-----||-----5-5/3-3/-----|-
D|-------------5-5/-||-------------5-5/-|- 
A|23-3/------------3||23-3/-------------|-
E|------------------||------------------|-

G|------------------||------------------|-
D|-----5-5/3-3/-----||-----5-5/3-3/-----|-
A|-------------5-5/-||-------------5-5/-|- 
E|23-3/-------------||23-3/-------------|-

G|-----7-7/5-5/-----||------------------|-
D|-------------7-7/-||------------------|-
A|45-5/-------------||-3.---------------|- 
E|------------------||------------------|-

G|------------------||--------------------|-
D|------------------||-5-3----------------|-
A|------------------||------5-3-----------|- 
E|------------------||------------6-5--3~~|-
 
 
End: 02:51



Tablature Legend ----------------  
| S  slap 
| P  pop 
| x  mute note 
| /  slide up 
| \  slide down 
| h  hammer-on 
| p  pull-off 
| g  grace note 
| ~  vibrato 
| ^  brush up
G
G|------------------||------------------|-
D|-------2-5-2------||-------2-5-2------|-
A|---2-5-------5-2--||---2-5-------5-2--|- 
E|-3----------------||-3----------------|-

G|-------2-5-2------||-------2-5-2------|-
D|---2-5-------5-2--||---2-5-------5-2--|- 
A|-3----------------||-3----------------|-
E|------------------||------------------|-

G|------------------||------------------|-
D|-------2-5-2------||-------2-5-2------|-
A|---2-5-------5-2--||---2-5-------5-2--|- 
E|-3----------------||-3----------------|-

G|-------4-7-4------||-------2-5-2------|-
D|---4-7-------7-4--||---2-5-------5-2--|-
A|-5----------------||-3----------------|- 
E|------------------||------------------|-

G|------------------||------------------|-
D|-------2-5-2------||-------2-5-2------|-
A|---2-5-------5-2--||---2-5-------5-2--|- 
E|-3----------------||-3----------------|-
Добавлено: 11.12.2015
Другие материалы по этой песне:
  • Аккорды и текст

Страница создана 11.12.2015
http://primanota.ru/the-fabulous-thunderbirds/im-sorry-chords.htm
Привет, Гость.
Предлагаем пройти революционный курс по гитаре.
Подарок от PrimaNota.Ru, забирай!