PrimaNota.ru - самый крупный в мире бесплатный архив песенных текстов, аккордов, табулатур и нот


The Fabulous Thunderbirds - Full Time Lover - бас-таба, видео

Регистрация Запомнить меня
Войти через:  Facebook Google Twitter Vk Yandex Mail.ru

The Fabulous Thunderbirds - Full Time Lover - бас-таба, видео

Печатать
Просмотров: 90
Fabulous Thunderbirds
Full time lover 

Bass Tabs

Bassist(s): 
- Randy Bermudes (2007- ...)
- Preston Hubbard (1985-1992)
- Keith Ferguson (1976-1985)

Tuning : EADG
Tempo: 89 bpm 
Key signature: B

Intro: 00:00
G|-----------------||-----------6-7-6-|-
D|-----------9-5-6-||---6--6-9--------|-
A|---6--6-9--------||-7---------------|- 
E|-7---------------||-----------------|-

G|------------------------------------|-
D|-------------6--6-9--9-7--7-6--6----|-
A|---6--6-9--9---------------------9--|- 
E|-7----------------------------------|-

G|-----------6-9-6-||-----------6-7-6-|-
D|---6--6-9--------||---6--6-9--------|- 
A|97---------------||-7---------------|-
E|-----------------||-----------------|-

G|------------------------------------|-
D|--------------6--6-9999-7--7-6--6---|-
A|----6--6-9--9---------------------9-|- 
E|-7-7--------------------------------|-

G|------------11-8-9-||-----------9-5-6-|-
D|---8--8-11---------||---6--6-9--------|-
A|89-----------------||-7---------------|- 
E|-------------------||-----------------|-

G|-------------------|------------------|-
D|-------------------|-7--9-------------|-
A|---6-6/7--7/8--8/9-|-------9---9--7---|- 
E|-7-----------------|----------------9-|-
  


Verse1: 00:41
G|-----------------||-----------6-7-6-|-
D|-----------9-5-6-||---6--6-9--------|-
A|---6--6-9--------||-7---------------|- 
E|-7---------------||-----------------|-
Well, I found me
Lord, I found me a full-time lover

G|------------------------------------|-
D|-------------6--6-9--9-7--7-6--6----|-
A|---6--6-9--9---------------------9--|- 
E|-7----------------------------------|-

G|-----------6-9-6-||-----------6-7-6-|-
D|---6--6-9--------||---6--6-9--------|- 
A|97---------------||-7---------------|-
E|-----------------||-----------------|-
Yes, I found, I found me
Lord, I found me a full-time lover

G|------------------------------------|-
D|--------------6--6-9999-7--7-6--6---|-
A|----6--6-9--9---------------------9-|- 
E|-7-7--------------------------------|-

G|------------11-8-9-||-----------9-5-6-|-
D|---8--8-11---------||---6--6-9--------|-
A|89-----------------||-7---------------|- 
E|-------------------||-----------------|-
Well, she used to be my part-time woman, man
But she's my full-time lover now

G|-------------------|------------------|-
D|-------------------|-7--9-------------|-
A|---6-6/7--7/8--8/9-|-------9---9--7---|- 
E|-7-----------------|----------------9-|-


Verse2: 01:23 (Bridge)
G|-------------------||-------------------|-
D|--------9--9-6-----||--------9--9-6-----|-
A|---6--6--------9-6-||---6--6--------9-6-|-  X3
E|-7-----------------||-7-----------------|-
Well, I work the graveyard shift
Seven days a week
I'm so downhearted
I can't hardly even speak
I'll tell you the reason
The reason why I feel this way

G|-------------------||----------------------|-
D|--------9--9-6-----||---------------6-9-6g-|-
A|---6--6--------9-6-||-----6--6-9--6--------|-  
E|-7-----------------||-7-7------------------|-
I can't find a full-time love
Yes, but I think I found her today

G|-----------6-9-6-||-----------6-7-6-|-
D|---6--6-9--------||---6--6-9--------|- 
A|97---------------||-7---------------|-
E|-----------------||-----------------|-
Yes, I found me
Lord, I found me a full-time lover

G|------------------------------------|-
D|--------------6--6-999-7--7-6--6----|-
A|----6--6-9--9--------------------9--|- 
E|-7-7--------------------------------|-

G|------------11-8-9-||-----------9-5-6-|-
D|---8--8-11---------||---6--6-9--------|-
A|89-----------------||-7---------------|- 
E|-------------------||-----------------|-
Well, she used to be my part-time girl, man
But she's my full-time lover now

G|-------------------|------------------|-
D|-------------------|-7--9-------------|-
A|---6-6/7--7/8--8/9-|-------9---9--7---|- 
E|-7-----------------|----------------9-|-


Instrumental(1): 02:20  (Play X2)
G|-----------------||-----------6-7-6-|-
D|-----------9-5-6-||---6--6-9--------|-
A|---6--6-9--------||-7---------------|- 
E|-7---------------||-----------------|-

G|------------------------------------|-
D|-------------6--6-999-9-7--7-6--6---|-
A|---6--6-9--9----------------------9-|- 
E|-7----------------------------------|-

G|-----------6-9-6-||-----------6-7-6-|-
D|---6--6-9--------||---6--6-9--------|- 
A|97---------------||-7---------------|-
E|-----------------||-----------------|-

G|------------------------------------|-
D|--------------6--6-999--777--666----|-
A|----6--6-9--9---------------------9-|- 
E|-7-7--------------------------------|-

G|------------11-8-9-||-----------9-5-6-|-
D|---8--8-11---------||---6--6-9--------|-
A|89-----------------||-7---------------|- 
E|-------------------||-----------------|-

G|-------------------|------------------|-
D|-------------------|-7--9-------------|-
A|---6-6/7--7/8--8/9-|-------9---9--7---|- 
E|-7-----------------|----------------9-|-


Verse3: 03:42 (Bridge)
G|-----------------||-----------6-7-6-|-
D|-----------9-5-6-||---6--6-9--------|-
A|---6--6-9--------||-7---------------|- X3
E|-7---------------||-----------------|-
Well, people, you don't know
You don't know the shape I'm in
I ask her where's she goin'
She tell me where she's been
She came home last night
Thought she was goin' back outdoor

G|-------------------||----------------------|-
D|--------9--9-6-----||---------------6-9-6g-|-
A|---6--6--------9-6-||-----6--6-9--6--------|-  
E|-7-----------------||-7-7------------------|-
Then she told me, "Daddy
I ain't leavin' you no more"

G|-----------6-9-6-||-----------6-7-6-|-
D|---6--6-9--------||---6--6-9--------|- 
A|97---------------||-7---------------|-
E|-----------------||-----------------|-
Yes, I found me
Lord, I found me a full-time lover

G|------------------------------------|-
D|--------------6--6-9999-7--7-6--6---|-
A|----6--6-9--9---------------------9-|- 
E|-7-7--------------------------------|-

G|------------11-8-9-||-----------------|-
D|------8-11---------||-----------------|-
A|-9g----------------||-7.--------------|- 
E|-------------------||-----------------|-
Well, she used to be my part-time woman, man
But she's my full-time lover now

G|-------------------|------------------|-
D|-------------------|-7----------------|-
A|---6-6/7--7/8--8/9-|-----9g-----------|- 
E|-7-----------------|----------7g~~----|-


End: 04:43



Tablature Legend ----------------  
| S  slap 
| P  pop 
| x  mute note 
| /  slide up 
| /  slide up 
| .  full stop
| h  hammer-on 
| p  pull-off 
| g  grace note 
| ~  vibrato 
| ^  brush up
 


B Scale (for ref)
G|------------------||------------------|-
D|-------6-9-6------||-------6-9-6------|-
A|---6-9-------9-6--||---6-9-------9-6--|- 
E|-7----------------||-7----------------|-

G|-------6-9-6------||-------6-9-6------|-
D|---6-9-------9-6--||---6-9-------9-6--|- 
A|-7----------------||-7----------------|-
E|------------------||------------------|-

G|------------------||------------------|-
D|-------6-9-6------||-------6-9-6------|-
A|---6-9-------9-6--||---6-9-------9-6--|- 
E|-7----------------||-7----------------|-

G|--------8-11-8------||--------8-11-8------|-
D|---8-11--------11-8-||---8-11--------11-8-|-
A|-9------------------||-9------------------|- 
E|--------------------||--------------------|-

G|-------6-9-6------||-------6-9-6------|-
D|---6-9-------9-6--||---6-9-------9-6--|- 
A|-7----------------||-7----------------|-
E|------------------||------------------|-

G|------------------||------------------|-
D|-------6-9-6------||-------6-9-6------|-
A|---6-9-------9-6--||---6-9-------9-6--|- 
E|-7----------------||-7----------------|-
Добавлено: 11.12.2015
Другие материалы по этой песне:
  • Аккорды и текст

Страница создана 11.12.2015
http://primanota.ru/the-fabulous-thunderbirds/full-time-lover-chords.htm
Привет, Гость.
Предлагаем пройти революционный курс по гитаре.
Подарок от PrimaNota.Ru, забирай!