PrimaNota.ru - самый крупный в мире бесплатный архив песенных текстов, аккордов, табулатур и нот


The Fabulous Thunderbirds - Extra Jimmies - бас-таба, видео

Регистрация Запомнить меня
Войти через:  Facebook Google Twitter Vk Yandex Mail.ru

The Fabulous Thunderbirds - Extra Jimmies - бас-таба, видео

Печатать
Просмотров: 103
Уроки эстрадного вокала в Санкт-Петербурге
The Fabulous Thunderbirds
Extra Jimmies 

Bass Tabs

Bassist(s): 
- Randy Bermudes (2007- ...)
- Preston Hubbard (1985-1992)
- Keith Ferguson (1976-1985)

Tuning : EADG
Tempo: 98 bpm 
Key: B

Instrumental

Intro: 00:01 (stabs)
G|---------|--------||--------|---------|-
D|-- guitar play  --||--- guitar play --|-
A|---------|--------||--------|---------|- 
E|-7.------|-7.-----||-7.-----|-7.------|-

....
Part1: 00:10
G|------------------||------------------|-
D|-------6-9--------||-------6-9--7-6---|-
A|---6-9------6-7-9-||---6-9----------9-|- 
E|-7----------------||-7----------------|-

G|-------6-9--6-----||------------------|-
D|---6-9--------9-6-||-------6-9--------|- 
A|-7----------------||---6-9------6-7-8-|-
E|------------------||-7----------------|-

G|------------------||------------------|-
D|------------------||------------6-9-6-|-
A|-9g-6-9-8-7-------||---6-7-8-9--------|- 
E|------------4-5-6-||-7----------------|-


''''
Part2: 00:25
G|------------------||------------------|-
D|--99--77--66--44--||-------6-9--7-6---|-
A|------------------||---6-9----------9-|- 
E|------------------||-7----------------|-

G|-------6-9--------||------------------|-
D|---6-9------9-7---||-------6-9--------|- 
A|-7--------------9-||---6-9------6-7-8-|-
E|------------------||-7----------------|-

G|------------------||------------------|-
D|------------------||-------6-9--------|-
A|-9g-6-9-8-7-------||---6-9------6-7-6-|- 
E|------------4-5-6-||-7----------------|-

.... 
Part3: 00:39
G|------------------||------------------|-
D|------------6-9-6-||------------6-9-6-|-
A|---6-7-8-9--------||---6-7-8-9--------|- 
E|-7----------------||-7----------------|-

G|------------6-9-6-||------------------|-
D|---6-7-8-9--------||-------6-9--------|- 
A|-7----------------||---6-9------6-7-8-|-
E|------------------||-7----------------|-

G|--------8|-------6-||-----------------|-
D|---8-11--|---6-9---||------------6-7g-|-
A|-9-------|-7-------||---6-7-8-9-------|- 
E|---------|---------||-7---------------|-

...
Part4: 00:54
G|-------------------||-------------------|-
D|-9g-7g-9g----------||-----------9-7-6---|-
A|------------6-7-9--||-----------------9-|- 
E|-------------------||-7g-5g-7g----------|-

G|---------|---------||-------------------|-
D|---6-7-9-|---6-7-9-||-----------9-------|-
A|-7-------|-7-------||---6-7-9-----6-7-8-|- 
E|---------|---------||-7-----------------|-

G|--------8|-------6-||-------------------|-
D|---8-11--|---6-9---||-----------9-7-6---|-
A|-9-------|-7-------||---6-7-9---------9-|- 
E|---------|---------||-7-----------------|-

...
Part5: 01:09
G|------------------||------------------|-
D|-------6-7-6------||-------6-7-6------|-
A|---6-7-------7-6--||---6-7-------7-6--|- 
E|-7----------------||-7----------------|-

G|-------6-7-6------||------------------|-
D|---6-7--------7-6-||-------6-7-6------|- 
A|-7----------------||---6-7-------7-6--|-
E|------------------||-7----------------|-

G|-------8-|-------6-||------------------|-
D|---8-9---|---6-7---||-------6-7-6------|-
A|-9-------|-7-------||---6-7-------7-6--|- 
E|---------|---------||-7----------------|-

...
Part6: 01:23
G|------------------||------------------|-
D|-------6-9-6------||-------6--9-7-6---|-
A|---6-9-------9-6--||---6-9----------9-|- 
E|-7----------------||-7----------------|-

G|-------6-9-6------||------------------|-
D|---6-9--------9-6-||-------6-9--------|- 
A|-7----------------||---6-9------6-7-8-|-
E|------------------||-7----------------|-

G|--------8|-------6-||-----------------|-
D|---8-11--|---6-9---||-----------6-9-6-|-
A|-9-------|-7-------||---6-7-8-9-------|- 
E|---------|---------||-7---------------|-

....
Part7: 01:38 (stabs)
G|---------|--------||--------|---------|-
D|-- guitar play  --||--- guitar play --|-
A|---------|--------||--------|---------|- 
E|-7.------|--------||--------|---------|-

G|---------|---------||-----------------|-
D|---6-7-9-|---6-7-9-||---------9-------|-
A|-7-------|-7-------||---6-7-9---6-7-8-|- 
E|---------|---------||-7---------------|-

G|--------8|-------6-||-----------------|-
D|---8-11--|---6-9---||---------9-7-6---|-
A|-9-------|-7-------||---6-7-9-------9-|- 
E|---------|---------||-7---------------|-

....
Part8: 01:53
G|------------------||------------------|-
D|-------6-9-6------||-------6--9-7-6---|-
A|---6-9-------9-6--||---6-9----------9-|- 
E|-7----------------||-7----------------|-

G|-------6-9-6------||------------------|-
D|---6-9-------9-6--||-------6-9--------|- 
A|-7----------------||---6-9------6-7-8-|-
E|------------------||-7----------------|-

G|--------8|-------6-||------------------|-
D|---8-11--|---6-9---||------------6-9---|-
A|-9-------|-7-------||---6-7-8-9------9-|- 
E|---------|---------||-7----------------|-

....
Part9: 02:08 (stabs)
G|---------|--------||--------|---------|-
D|-- guitar play  --||--- guitar play --|-
A|---------|--------||--------|---------|- 
E|-7.------|-7.-----||-7.-----|-7.------|-

....
Part10:02:17 (Outro)
G|------------------||------------------|-
D|-------6-9--------||-------6-9--7-6---|-
A|---6-9------6-7-9-||---6-9----------9-|- 
E|-7----------------||-7----------------|-

G|-------6-9--6-----||------------------|-
D|---6-9--------9-6-||-------6-9--------|- 
A|-7----------------||---6-9------6-7-8-|-
E|------------------||-7----------------|-

G|-------------------------------------||-----|-
D|-------------------------------9-7-6-||-----|-
A|-9g-6-9--8-7----------6-7-8-9--------||-----|- 
E|-------------4-5-6-7-----------------||-7g~-|-

End: 02:37



Tablature Legend ----------------  
| S  slap 
| P  pop 
| x  mute note
| .  full stop 
| /  slide up 
| \  slide down 
| h  hammer-on 
| p  pull-off 
| g  grace note 
| ~  vibrato 
| ^  brush up
Добавлено: 16.12.2015
Другие материалы по этой песне:

Страница создана 13.08.2013
http://primanota.ru/the-fabulous-thunderbirds/extra-jimmies-chords.htm
Привет, Гость.
Предлагаем пройти революционный курс по гитаре.
Подарок от PrimaNota.Ru, забирай!