PrimaNota.ru - самый крупный в мире бесплатный архив песенных текстов, аккордов, табулатур и нот


The F-ups - Falling Down - текст песни, таба, видео

Регистрация Запомнить меня
Войти через:  Facebook Google Twitter Vk Yandex Mail.ru

The F-ups - Falling Down - текст песни, таба, видео

Печатать
Просмотров: 193
Уроки эстрадного вокала в Санкт-Петербурге
-------------------------------------------------------------------------------
                         FALLING DOWN - The F-ups
-------------------------------------------------------------------------------
Tabbed by:MAP
Email:Whitelion915@aol.com

Tuning:Standard

Intro & Verse contd.:
  B5                              F#5                             E5
e|--------------------------------------------------------------------------|
B|--------------------------------------------------------------------------|
G|4-4-4-4-4-4-4-4-4-4-4-4-4-4-4-4-------------------------------------------|
D|4-4-4-4-4-4-4-4-4-4-4-4-4-4-4-4-4-4-4-4-4-4-4-4-4-4-4-4-4-4-4-4-2-2-2-2-2-|
A|2-2-2-2-2-2-2-2-2-2-2-2-2-2-2-2-4-4-4-4-4-4-4-4-4-4-4-4-4-4-4-4-2-2-2-2-2-|
E|--------------------------------2-2-2-2-2-2-2-2-2-2-2-2-2-2-2-2-0-0-0-0-0-|

  E5                    F#5
e|--------------------------------------------------------------------------|
B|--------------------------------------------------------------------------|
G|--------------------------------------------------------------------------|
D|2-2-2-2-2-2-2-2-2-2-2-4-4-4-4-4-4-4-4-4-4-4-4-4-4-4-4---------------------|
A|2-2-2-2-2-2-2-2-2-2-2-4-4-4-4-4-4-4-4-4-4-4-4-4-4-4-4---------------------|
E|0-0-0-0-0-0-0-0-0-0-0-2-2-2-2-2-2-2-2-2-2-2-2-2-2-2-2---------------------|

Verse:
  B5                             F#5                              E5
e|--------------------------------------------------------------------------|
B|--------------------------------------------------------------------------|
G|4=4=4---------------------------------------------------------------------|
D|4=4=4--------------------------4)4)-4---------------------------2)2)2-----|
A|2=2=2--------------------------4)4)-4---------------------------2)2)2-----|
E|-------------------------------2)2)-2---------------------------0)0)0-----|

                        F#5
e|-------------------------------------------------------|
B|-------------------------------------------------------|
G|-------------------------------------------------------|
D|----------------------4)4)-4---------------------------|
A|----------------------4)4)-4---------------------------|
E|----------------------2)2)-2---------------------------|

Chorus:Add four more "murdered" E5's each Chorus (listen to the song).
  E5(2)           B5              E5(2)           F#5             E5(2)
e|--------------------------------------------------------------------------|
B|--------------------------------------------------------------------------|
G|9-9-9-9-9-9-9-9-4-4-4-4-4-4-4-4-9-9-9-9-9-9-9-9-----------------9-9-9-9-9-|
D|9-9-9-9-9-9-9-9-4-4-4-4-4-4-4-4-9-9-9-9-9-9-9-9-4-4-4-4-4-4-4-4-9-9-9-9-9-|
A|7-7-7-7-7-7-7-7-2-2-2-2-2-2-2-2-7-7-7-7-7-7-7-7-4-4-4-4-4-4-4-4-7-7-7-7-7-|
E|------------------------------------------------2-2-2-2-2-2-2-2-----------|

        B5              G#5             F#5             E5
e|-----------------------------------------------------------------------|
B|-----------------------------------------------------------------------|
G|9-9-9-4-4-4-4-4-4-4-4--------------------------------------------------|
D|9-9-9-4-4-4-4-4-4-4-4-6-6-6-6-6-6-6-6-4-4-4-4-4-4-4-4-2)2)2)2)-2-2-2-2-|
A|7-7-7-2-2-2-2-2-2-2-2-6-6-6-6-6-6-6-6-4-4-4-4-4-4-4-4-2)2)2)2)-2-2-2-2-|
E|----------------------4-4-4-4-4-4-4-4-2-2-2-2-2-2-2-2-0)0)0)0)-0-0-0-0-|

  F#5     B5                              F#5                             E5
e|--------------------------------------------------------------------------|
B|--------------------------------------------------------------------------|
G|--------4-4-4-4-4-4-4-4-4-4-4-4-4-4-4-4-----------------------------------|
D|4-4-4-4-4-4-4-4-4-4-4-4-4-4-4-4-4-4-4-4-4-4-4-4-4-4-4-4-4-4-4-4-4-4-4-4-2-|
A|4-4-4-4-2-2-2-2-2-2-2-2-2-2-2-2-2-2-2-2-4-4-4-4-4-4-4-4-4-4-4-4-4-4-4-4-2-|
E|2-2-2-2---------------------------------2-2-2-2-2-2-2-2-2-2-2-2-2-2-2-2-0-|

  E5                            F#5
e|--------------------------------------------------------------------------|
B|--------------------------------------------------------------------------|
G|--------------------------------------------------------------------------|
D|2-2-2-2-2-2-2-2-2-2-2-2-2-2-2-4-4-4-4-4-4-4-4-4-4-4-4-4-4-4-4-------------|
A|2-2-2-2-2-2-2-2-2-2-2-2-2-2-2-4-4-4-4-4-4-4-4-4-4-4-4-4-4-4-4-------------|
E|0-0-0-0-0-0-0-0-0-0-0-0-0-0-0-2-2-2-2-2-2-2-2-2-2-2-2-2-2-2-2-------------|

Solo:
e|--------------------------------------------------------------------------|
B|--------------------------------------------------------------------------|
G|1/11\1/11\1/11\1/11\1/11\1/11\1/11\1/11\1/11\1/11\1/11\1/11\1/11\1/11\1/11|
D|--------------------------------------------------------------------------|
A|--------------------------------------------------------------------------|
E|--------------------------------------------------------------------------|

e|--------------------------------------------------------------------------|
B|--------------------------------------------------------------------------|
G|1/11\1-13^--13-13----13-13/15--13--11----11-11----11-11/13--11--9----9-9--|
D|--------------------------------------------------------------------------|
A|--------------------------------------------------------------------------|
E|--------------------------------------------------------------------------|

e|---------------------------|
B|---------------------------|
G|--9-9/11-9-8--8-6--6-4--4-2|
D|---------------------------|
A|---------------------------|
E|---------------------------|

Order:
Intro
Verse
Verse contd.
Chorus
Verse
Chorus
Solo (Rhythm guitar plays Verse contd. twice.)
Chorus


| =  Tremelo Picking/Gliss (Play twice as fast)
| ^  bend
| )  kill (Mute strings emediately after playing chord)
| /  slide up
| \  slide down
| h  hammer-on
| p  pull-off
| ~  vibrato
| +  harmonic
| x  Mute note
============================================================================
Добавлено: 26.06.2012
Другие материалы по этой песне:
  • Аккорды и текст

Страница создана 27.03.2012
http://primanota.ru/the-f-ups/falling-down-chords.htm
Привет, Гость.
Предлагаем пройти революционный курс по гитаре.
Подарок от PrimaNota.Ru, забирай!