PrimaNota.ru - самый крупный в мире бесплатный архив песенных текстов, аккордов, табулатур и нот


The Explosion - Im On Fire - таба, видео

Регистрация Запомнить меня
Войти через:  Facebook Google Twitter Vk Yandex Mail.ru

The Explosion - Im On Fire - таба, видео

Печатать
Просмотров: 126
Уроки эстрадного вокала в Санкт-Петербурге
-----------------------------------------------------------------------------
                The Explosion - I'm on fire
-----------------------------------------------------------------------------

Intro Part 1               Intro part 2

E|-----------------------|--------------------|
B|-----------------------|--------7-----------|
G|--9-7---9-7------------|--9-7-----9-7-------|
D|------9-----9----------|------9-------------|
A|-----------------------|--------------------|
E|-----------------------|--------------------|

Intro riff/verse riff

E|-----------------------|
B|-----------------------|
G|-----------------------|
D|---2-2-2--2-2-2--------|
A|---2-2-2--2-2-2--------|
E|---0-3h0--0-3h0--------|

Chorus                          Chorus End

E|------------------------|    |----------------------|
B|------------------------|    |----------------------|
G|---7--------------------|    |---7------------------|
D|---7-------7-------2----| x2 |---7-------7----------|
A|---5-------7-------2----|    |---5-------7----------|
E|-----------5-------0----|    |-----------5----------|

Solo

E|---------------------------|    |------------------------------------------|
B|---------15----------------| x2 |---------15-------------------------------|
G|---14-12----14-12-14-------| t  |---14-12----14-12-14----------12-11-------|
D|---------------------12-14-| h  |---------------------12-14-14-------14-12-|
A|---------------------------| e  |------------------------------------------|
E|---------------------------| n  |------------------------------------------|

E|--------------------------------------------------------------|
B|--------------------------------------------------------------|
G|---12-14-----------------12----------12----12-14^-14^-12------|
D|---------12-14-----12-14----14-12-14----14---------------14---|
A|--------------------------------------------------------------|
E|--------------------------------------------------------------|

Ending

E|----------------------------|    |------------------------------------|
B|----------------------------|    |------------------------------------|
G|---7------------------------| x3 |---7--------------------7-----------|
D|---7--------7--------2------|    |---7--------7-------2-5-7-7-5-7-2---|
A|---5--------7--------2------|    |---5--------7-------2-5-5-7-5-7-2---|
E|------------5--------0------|    |------------5-------0-3---5-3-5-0---|
Order : Intro part 1
        Intro riff/verse riff x2
        Intro part 1
        Intro riff/verse riff x2
        Intro part 1
        Intro riff/verse riff x2
        Intro part 2
        Intro riff/verse riff x10
        Chorus + Chorus End
        Intro part 1
        Intro riff/verse riff x10
        Chorus + Chorus End
        Intro part 1
        Intro riff/verse riff x4
        Solo
        Play all strings muted repeatedly
        Intro riff/verse riff x10
        Ending

h = Hammer
^ = Bend
Добавлено: 06.06.2012
Вам также может быть интересно:
Другие материалы по этой песне:
  • Аккорды и текст

Страница создана 06.06.2012
http://primanota.ru/the-explosion/im-on-fire-chords.htm
Привет, Гость.
Предлагаем пройти революционный курс по гитаре.
Подарок от PrimaNota.Ru, забирай!