PrimaNota.ru - самый крупный в мире бесплатный архив песенных текстов, аккордов, табулатур и нот


The Expendables - Trying To Focus - аккорды и текст, видео

Регистрация Запомнить меня
Войти через:  Facebook Google Twitter Vk Yandex Mail.ru

The Expendables - Trying To Focus - аккорды и текст, видео

Печатать
Просмотров: 94
Trying To Focus
The Expendables
-------------------------------------------------------------------------------
                Trying to Focus (Acoustic) - The Expendables
-------------------------------------------------------------------------------
Tabbed by: Colby Horvath
Email: sublime420@blazemail.com

Tuning: Standard

     D9    G     C     Em    Am

e|---X-----3-----0-----0-----0----------------------------------------------|
B|---3-----3-----1-----0-----1----------------------------------------------|
G|---5-----4-----0-----0-----2----------------------------------------------|
D|---4-----5-----2-----2-----2----------------------------------------------|
A|---5-----5-----3-----2-----0----------------------------------------------|
E|---X-----3-----X-----0-----X----------------------------------------------|
   

D9    G
        I'm trying to focus

D9    G
        But i'm fallin' asleep

D9    G                              C
        the baggage on my eyelids is too

                                   Em
        heavy to keep from fallin'

               Am     C           G
        Ramble on, on through the night

D9     G
        I've been driving

D9     G
        since a quarter to three

D9     G                             C
        I've seen the sun come up so many times

                             Em
        this week it's scary

               Am    C      G
        Rollin on until the day


       Chorus:

                   Em       D    Em
        When i get off that open road

                  C        D     Em
        There's a pull within my bones

               Em         D    Em
        Like a ship bound by a rope

                     C      D         Em
        It won't let go, it won't let go

                     C      D         Em
        It won't let go, It won't let go




D9     G
        I've been run over

D9     G
        by the hangover truck

D9     G
        A drive-by shooting shot down

           C
        By twelve ounce eighty proof slugs

                Em      Am
        Embedded, in my head

            C          G
        The ache in my head

D9     G                  D9   G
        I've been smokin',      sticks from a ditch

D9     G
        That mid-west farmer's daughter

               C
        Is the one that's makin' me itch

                 Em           Am      C       G 
        In places,  i'd never want an itch to be 


Repeat chorus with all barre chords. Enjoy
Добавлено: 10.05.2012
Другие материалы по этой песне:
  • Аккорды и текст

Страница создана 02.03.2012
http://primanota.ru/the-expendables/trying-to-focus-chords.htm
Привет, Гость.
Предлагаем пройти революционный курс по гитаре.
Подарок от PrimaNota.Ru, забирай!