PrimaNota.ru - самый крупный в мире бесплатный архив песенных текстов, аккордов, табулатур и нот


The Expendables - Paper Chains - таба, видео

Регистрация Запомнить меня
Войти через:  Facebook Google Twitter Vk Yandex Mail.ru

The Expendables - Paper Chains - таба, видео

Печатать
Просмотров: 95
Artist - The Expendables
Title - Paper Chains
Album - The Expendables
Tabbed By - Richard K.
E-Mail - Island_guitar_boy88@hotmail.com

2x Guitars

Intro/Verse

e--5~------5~----7~--|
G--7~------5~----7~--|
B--7~------6~----7~--|  Play The Chords To Back Up The solo 1.
D--7~------7~----9~--|  Let Them Ring.
A--5~------7~----9~--|
E--x-------5~----7~--|

e--------------------------------------9/12~~~\----|
B----------------7h8p7--------------10-------------|
G--9/11~---9\----------9-7---7h9/11----------------|
D--------------------------9-----------------------|
A--------------------------------------------------|
E--------------------------------------------------|

Play The Chords And Let Them Ring Again Except The Last Chord.

e-----------------7-------|
B-----------------7-------|
G--9/11~---9\-----7-5X----|   Listen To The Song To Get The Pattern
D-----------------9-------|   Or Go On Youtube.
A-----------------9-------|
E-----------------7-------|

Reggae Strums For The Verse And Chorus.

Verse

e--5--5--7--|
B--7--5--7--|
G--7--6--7--|
D--7--7--9--|
A--5--7--9--|
E--5--5--7--|

Chorus

e--3--5--7--|
B--3--5--7--|
G--4--6--7--|
D--5--7--9--|
A--5--7--9--|
E--3--5--7--|

When It Comes To The Solo Play The Verse Chords To Back It Up.
Do Reggae Strums.

order

Intro
Verse
Chorus
Verse
Chorus
Solo
Chorus Chords


Well This Is As Far As I Got, Theres
More To It But Havent Figured It Out
Yet....But When I Do Ill Post It.
Добавлено: 18.06.2012
Другие материалы по этой песне:
  • Аккорды и текст

Страница создана 27.05.2012
http://primanota.ru/the-expendables/paper-chains-chords.htm
Привет, Гость.
Предлагаем пройти революционный курс по гитаре.
Подарок от PrimaNota.Ru, забирай!