PrimaNota.ru - самый крупный в мире бесплатный архив песенных текстов, аккордов, табулатур и нот


The Expendables - Down Down Down - таба, бас-таба, видео

Регистрация Запомнить меня
Войти через:  Facebook Google Twitter Vk Yandex Mail.ru

The Expendables - Down Down Down - таба, бас-таба, видео

Печатать
Просмотров: 160
Уроки эстрадного вокала в Санкт-Петербурге
--------------------------------------------------------------------------
                             DOWN DOWN DOWN - The Expendables
--------------------------------------------------------------------------
Tabbed by: Stoopidass18
Email:

Tuning: Standard

e|---10---10----------------------------------------------------------------|
B|---11---10---8---10-------------------------------------------------------|
G|---12---10---8---10-------------------------------------------------------|
D|---12---12---8---10-------------------------------------------------------|
A|---10---12---6---8--------------------------------------------------------|
E|--------10----------------------------------------------------------------|
 some parts are up down strokes and some are reggae style strokes
Добавлено: 18.03.2012
Другие материалы по этой песне:

Страница создана 18.03.2012
http://primanota.ru/the-expendables/down-down-down-chords.htm
Привет, Гость.
Предлагаем пройти революционный курс по гитаре.
Подарок от PrimaNota.Ru, забирай!