PrimaNota.ru - самый крупный в мире бесплатный архив песенных текстов, аккордов, табулатур и нот


The Expendables - Dcb - таба, видео

Регистрация Запомнить меня
Войти через:  Facebook Google Twitter Vk Yandex Mail.ru

The Expendables - Dcb - таба, видео

Печатать
Просмотров: 103
-----------------------------------------------------------------
D.C.B. – The Expendables
-----------------------------------------------------------------
Tabbed by: Brian Zucker
Email: bnzucker@comcast.net
Tuning: Standard

E|---------------------------------------------------------------|
B|---------------------------------------------------------------|
G|---------------------------------------------------------------|
D|-2----let ring-------------------------------------------------|
A|-2-------------------------------------------------------------|
E|-0-------------------------------------------------------------|

E|---------------------------------------------------------------|
B|---------------------------------------------------------------|
G|---------------------------------------------------------------|
D|---------------------------------------------------------------|
A|---*-*-7-7s9--*-*-9-9s10--*-*-9-9s10--*-*-10-10s12-------------|
E|---0-0--------0-0---------7-7---------7-7----------------------|

E|---------------------------------------------------------------|
B|---------------------------------------------------------------|
G|---------------------------------------------------------------|
D|---------------------------------------------------------------|
A|---*-*-7-7s9--*-*-9-9s10--*-*-9-9s10--*-*--12p10p9h10----------|
E|---0-0--------0-0---------7-7---------7-7----------------------|

E|---------------------------------------------------------------|
B|---------------------------------------------------------------|
G|---------------------------------------------------------------|
D|---------------------------------------------------------------|
A|---*-*-7-7s9--*-*-9-9s10--*-*-9-9s10--*-*-10-10s12-------------|
E|---0-0--------0-0---------7-7---------7-7----------------------|

E|---------------------------------------------------------------|
B|---------------------------------------------------------------|
G|---------------------------------------------------------------|
D|---------------------------------------------------------------|
A|---*-*-7-7s9--*-*-9-9s10--*-*-9-9s10--*-*--12p10p9h10----------|
E|---0-0--------0-0---------7-7---------7-7----------------------|

E|---------------------------------------------------------------|
B|---------------------------------------------------------------|
G|---------------------------------------------------------------|
D|---------------------------------------------------------------|
A|---*-*-7-7s9--*-*-9-9s10--*-*-9-9s10--*-*-10-10s12-------------|
E|---0-0--------0-0---------7-7---------7-7----------------------|

E|---------------------------------------------------------------|
B|---------------------------------------------------------------|
G|---------------------------------------------------------------|
D|---------------------------------------------------------------|
A|---*-*-7-7s9--*-*-9-9s10--*-*-9-9s10--*-*-10p9s7h9p7s5h7p5-----|
E|---0-0--------0-0---------7-7---------7-7----------------------|

 
E|---------------------------------------------------------------|
B|---------------------------------------------------------------|
G|---------------------------------------------------------------|
D|---------------------------------------------------------------|
A|---*-*-7-7s9--*-*-9-9s10--*-*-9-9s10--*-*-10-10s12-------------|
E|---0-0--------0-0---------7-7---------7-7----------------------|

E|---------------------------------------------------------------|
B|---------------------------------------------------------------|
G|---------------------------------------------------------------|
D|---------------------------------------------------------------|
A|---*-*-7-7s9--*-*-9-9s10--*-*--9-9s10--*-*---------------------|
E|---0-0--------0-0---------7-7----------7-7---------------------|

E|---------------------------------------------------------------|
B|---------------------------------------------------------------|
G|---------------------------------------------------------------|
D|---------------------------------------------------------------|
A|-14p12s10h12p10s9h10p9s7h9p7s5h7p5h7p5-------------------------|
E|---------------------------------------------------------------|

E|---------------------------------------------------------------| 
B|---------------------------------------------------------------|
G|---------------------------------------------------------------|
D|---------------------------------------------------------------|
A|-***-*-*--***-*-*--***-*-*--10p9s7h9p7s5h7p5-------------------|
E|-000-0-0--000-0-0--000-0-0-------------------------------------|
         x4
E|---------------------------------------------------------------|
B|---------------------------------------------------------------|
G|-------------------------------5-------------------------------|
D|-2-----------------------------5--*-*-***-***------------------|
A|-2--*-*-***-***--10p9s7h9p7s5--3--3-3-333-333--10p9s7h9p7s5----|
E|-0--0-0-000-000------------------------------------------------|

E|---------------------------------------------------------------|
B|---------------------------------------------------------------|
G|-7-------------------------------------------------------------|
D|-7--*-*-***-***----------------2-------------------------------|
A|-5--5-5-555-555--10p9s7h9p7s5--2-*-*-***-***--10p9s7h9p7s5-----|
E|-------------------------------0-0-0-000-000-------------------|
repeat 2 above consecutively x4

E|---------------------------------------------------------------|
B|---------------------------------------------------------------|
G|-------------------------------5-------------------------------|
D|-2-----------------------------5--*-*-***-***------------------|
A|-2--*-*-***-***--10p9s7h9p7s5--3--3-3-333-333--10p9s7h9p7s5----|
E|-0--0-0-000-000------------------------------------------------|

E|---------------------------------------------------------------|
B|---------------------------------------------------------------|
G|-7-------------------------------------------------------------|
D|-7-*-*-***-***-***-***--2-2-2----------------------------------|
A|-5-5-5-555-555-555-555--2-2-2----------------------------------|
E|------------------------0-0-0----------------------------------|

E|---------------------------------------------------------------|
B|---------------------------------------------------------------|
G|---------------------------------------------------------------|
D|---------------------------------------------------------------|
A|----*---*---*------*-*-*-*-*-*-*-------------------------------|
E|-0--0-7-0-6-0-5-0--0-2-3-0-2-3-0-------------------------------|

E|---------------------------------------------------------------|
B|---------------------------------------------------------------|
G|---------------------------------------------------------------|
D|---------------------------------------------------------------|
A|----*---*---*------*-*-*-*-*-*-*-------------------------------|
E|-0--0-7-0-6-0-5-0--0-2-3-0-2-3-0-------------------------------|

E|---------------------------------------------------------------|
B|---------------------------------------------------------------|
G|---------------------------------------------------------------|
D|---------------------------------------------------------------|
A|----*---*---*------*-*-*-*-*-*-*-------------------------------|
E|-0--0-7-0-6-0-5-0--0-2-3-0-2-3-0-------------------------------|

E|---------------------------------------------------------------|
B|---------------------------------------------------------------|
G|---------------------------------------------------------------|
D|---------------------------------------------------------------|
A|----*---*---*--------------------------------------------------|
E|-0--0-7-0-6-0-5-0-------0-2-3----------------------------------|

E|---------------------------------------------------------------|
B|---------------------------------------------------------------|
G|---------------------------------------------------------------|
D|---------------------------------------------------------------|
A|----*---*---*------*-*-*-*-*-*-*-------------------------------|
E|-0--0-7-0-6-0-5-0--0-2-3-0-2-3-0-------------------------------|

E|---------------------------------------------------------------|
B|---------------------------------------------------------------|
G|---------------------------------------------------------------|
D|---------------------------------------------------------------|
A|----*---*---*------*-*-*-*-*-*-*-------------------------------|
E|-0--0-7-0-6-0-5-0--0-2-3-0-2-3-0-------------------------------|

E|---------------------------------------------------------------|
B|---------------------------------------------------------------|
G|---------------------------------------------------------------|
D|---------------------------------------------------------------|
A|----*---*---*------*-*-*-*-*-*-*-------------------------------|
E|-0--0-7-0-6-0-5-0--0-2-3-0-2-3-0-------------------------------|

E|---------------------------------------------------------------|
B|---------------------------------------------------------------|
G|---------------------------------------------------------------|
D|---------------------------------------------------------------|
A|----*---*---*--------------------------------------------------|
E|-0--0-7-0-6-0-5--4~~-------------------------------------------|


E|---------------------------------------------------------------|
B|---------------------------------------------------------------|
G|-----3s4------4s5---------------7s9----------------------------|
D|-----3s4------4s5------5s7------7s9----------------------------|
A|-*-*-1s2--*-*-2s3--*-*-5s7--*-*-5s7----------------------------|
E|-0-0------0-0------0-0-3s5--0-0--------------------------------|

E|---------------------------------------------------------------|
B|---------------------------------------------------------------|
G|-----3s4------4s5---------------7s9----------------------------|
D|-----3s4------4s5------5s7------7s9----------------------------|
A|-*-*-1s2--*-*-2s3--*-*-5s7--*-*-5s7----------------------------|
E|-0-0------0-0------0-0-3s5--0-0--------------------------------|

E|---------------------------------------------------------------|
B|---------------------------------------------------------------|
G|---------------------------------------------------------------|
D|-----*-*------*-*---------------*-*----------------------------|
A|-*-*-1-2--*-*-2-3--*-*-*-*--*-*-5-7----------------------------|
E|-0-0------0-0------0-0-3-5--0-0--------------------------------|

E|---------------------------------------------------------------|
B|---------------------------------------------------------------|
G|---------------------------------------------------------------|
D|-----*-*------*-*---------------*-*----------------------------|
A|-*-*-1-2--*-*-2-3--*-*-*-*--*-*-5-7----------------------------|
E|-0-0------0-0------0-0-3-5--0-0--------------------------------|

E|---------------------------------------------------------------|
B|---------------------------------------------------------------|
G|---------------------------------------------------------------|
D|-----*-*------*-*---------------*-*----------------------------|
A|-*-*-1-2--*-*-2-3--*-*-*-*--*-*-5-7----------------------------|
E|-0-0------0-0------0-0-3-5--0-0--------------------------------|

E|---------------------------------------------------------------|
B|---------------------------------------------------------------|
G|--------------------------------7s9----------------------------|
D|-----*-*------*-*---------------7s9----------------------------|
A|-*-*-1-2--*-*-2-3--*-*-*-*--*-*-5s7----------------------------|
E|-0-0------0-0------0-0-3-5--0-0--------------------------------|

E|---------------------------------------------------------------|
B|---------------------------------------------------------------|
G|-----3s4------4s5---------------7s9----------------------------|
D|-----3s4------4s5------5s7------7s9----------------------------|
A|-*-*-1s2--*-*-2s3--*-*-5s7--*-*-5s7----------------------------|
E|-0-0------0-0------0-0-3s5--0-0--------------------------------|

E|---------------------------------------------------------------|
B|---------------------------------------------------------------|
G|-----3s4------4s5----------------------------------------------|
D|-----3s4------4s5---------------------2-let ring---------------|
A|-*-*-1s2--*-*-2s3----10p9p7h9p7s5h7---2------------------------|
E|-0-0------0-0-------------------------0------------------------|


E|---------------------------------------------------------------|
B|---------------7~-------8~-------5~----------------------------|
G|---------------------------------------------------------------|
D|---------------------------------------------------------------|
A|---------------------------------------------------------------|
E|---------------------------------------------------------------|
Start with volume knob off, gradually add volume after each note.

E|---------5----------------------------5---------7-7------------|
B|--8-7-8----8--5-7--5-----------8-7-8----8--5-7-----------------|
G|---------------------7~--s7-5----------------------------------|
D|---------------------------------------------------------------|
A|---------------------------------------------------------------|
E|---------------------------------------------------------------|
play twice w/clean setting, twice w/distortion

E|---------------------------------------------------------------|
B|---------------------------------------------------------------|
G|---------------------------------------------------------------|
D|-t12p5h9-------------------------------------------------------|
A|---------------------------------------------------------------|
E|---------------------------------------------------------------|
          x8

E|---------------------------------------------------------------|
B|---------------------------------------------------------------|
G|-t12p5h9-------------------------------------------------------|
D|---------------------------------------------------------------|
A|---------------------------------------------------------------|
E|---------------------------------------------------------------|
          x8
E|---------------------------------------------------------------|
B|--t12p7h10-----------------------------------------------------|
G|---------------------------------------------------------------|
D|---------------------------------------------------------------|
A|---------------------------------------------------------------|
E|---------------------------------------------------------------|
          x8
E|--t12p7h10-----------------------------------------------------|
B|---------------------------------------------------------------|
G|---------------------------------------------------------------|
D|---------------------------------------------------------------|
A|---------------------------------------------------------------|
E|---------------------------------------------------------------|
          x8 (Play all tapping through twice)

E|---------5----------------------------5---------7-7------------|
B|--8-7-8----8--5-7--5-----------8-7-8----8--5-7-----------------|
G|---------------------7~--s7-5----------------------------------|
D|---------------------------------------------------------------|
A|---------------------------------------------------------------|
E|---------------------------------------------------------------|

E|---------5---------------------------5-------5-----8p7p5-------|
B|--8-7-8----8--5-7--5-----------8-7-8---8-7-8---8-7-------------|
G|---------------------7~--s7-5-----------------------------7b9~-|
D|---------------------------------------------------------------|
A|---------------------------------------------------------------|
E|---------------------------------------------------------------|

h - hammer on 
p - pull off 
b - bend string up
r - release bend
s - slide 
~ - vibrato 
t - right hand tap
* - palm-mute

Hey that is all I got. I think I am missing one solo somewhere in the beginning of the song. 
if someone could tab that that would be great. 
Be careful reading this tab there are a lot of parts that look the same but have 
slight variations. 
Email me if you have any questions or see an error. 
I tried my best on some parts. Enjoy

Brian
Добавлено: 31.05.2012
Другие материалы по этой песне:
  • Аккорды и текст

Страница создана 31.05.2012
http://primanota.ru/the-expendables/dcb-chords.htm
Привет, Гость.
Предлагаем пройти революционный курс по гитаре.
Подарок от PrimaNota.Ru, забирай!