PrimaNota.ru - самый крупный в мире бесплатный архив песенных текстов, аккордов, табулатур и нот


The Expendables - Burning Up Reprise - таба, видео

Регистрация Запомнить меня
Войти через:  Facebook Google Twitter Vk Yandex Mail.ru

The Expendables - Burning Up Reprise - таба, видео

Печатать
Просмотров: 56
-------------------------------------------------------------------------------
                             Burning Up(Reprise) - The Expendables
-------------------------------------------------------------------------------
Tabbed by: Tyler Bowles
E-mail: Tbowles513@gmail.com

Theres a only few tabs of this song out there, some are spot on with the chords but, i felt there needed to
be a more complete tab of this song. Its an awesome song by The Expendables. This is the reprised version off
of the self titled album, not the version from open container. This tab is 92% complete minus the crazy outro
solo at the end. So please if anyones got it I'd Love to know :)

Tuning: standard

 Intro

I want to run away
From this awful place in my mind
Don't want to do no more time

    E    B    F#m   A
e|--4----7----9-----5--------|
B|--5----7----10----5--------|
G|--4----8----11----6--------|
D|--6----9----11----7--------|
A|--7----9----9-----7--------|
E|--x----7----x-----5--------|

 Guitar #2

e|---------------------12---9------------|
B|------------------10------10-----------|
G|---------------11---------9------------|
D|------------11------------11-----------|
A|--------------------------12-----------|
E|---------------------------------------|

e|-------12--------7-----------12---9-------|
B|-----12--------7----------10------10------|
G|---13--------8---------11---------9-------|
D|-14--------9--------11------------11------|
A|----------------------------------12------|
E|------------------------------------------|

 Verse

I want to run away
From this awful place in my mind
Don't want to do no more time

    E    B    F#m   A
e|--7----7----9-----5--------|
B|--9----7----10----5--------|
G|--9----8----11----6--------|
D|--9----9----11----7--------|
A|--7----9----9-----7--------|
E|--x----7----x-----5--------|
 
 Guitar #2
   
e|--7h7----7----9---12---9-------|
B|--7h9----7----10--10---10------|
G|--7h9----8----11--11---9-------|
D|--7h9----9----11--11---11------|
A|--7h7----9----9---9----12------|
E|--x-x----7----x--------x-------|

e|-------------------------------12---9------|
B|-----9--12p9-----12---------10------10-----|
G|--9-----------9----------11---------9------|
D|----------------------11------------11-----|
A|------------------------------------12-----|
E|------------------------------------x------|

I do what I love to pick me up
But lately now I do not think it's gonna be enough
So I sit and I pray and I hope that someday
These problems will move far away

e   E    B    F#m   A   B
e|--7----7----9-----5---7------|
B|--9----7----10----5---7------|
G|--9----8----11----6---8------|
D|--9----9----11----7---9------|
A|--7----9----9-----7---9------|
E|--x----7----x-----5---7------|

Chorus

I'm burning up In the fire of my soul
I'm burning up There is no way I can stay in control
I'm burning up in the fire of my soul
I'm burning up there is no way,

    C#m    A    B
e|---9-----5----7---------|
B|---9-----5----7---------|
G|---9-----6----8---------|
D|---11----7----9---------|
A|---11----7----9---------|
E|---9-----5----7---------|

 First Solo

e|-------------------------------------------9--------------------------------------|
B|-------9--------12-9------------------9h12---12-9-12~ --14p12p9--12-9-------------|
G|--9h11---9h11--------11-9h11-9---9h11---------------------------------11p9-11-----|
D|----------------------------------------------------------------------------------|
A|----------------------------------------------------------------------------------|
E|----------------------------------------------------------------------------------|

e|---------------------------------------------------------------------|
B|-----------9---------------------------------------------------------|
G|-------9-9---11-9---8h9p8-------------------------------9h11-11b-----|
D|--9h11--------------------11---------------------9h11p9--------------|
A|------------------------------9-7-9-7h9---7h9s11---------------------|
E|---------------------------------------------------------------------|

e|--------------------------------------------------------------------------|
B|--12-9---------12-9-------------------9h10p9------------------------------|
G|-------11p9h11------11-9h11p9----9h11--------11-9---9h11--9~ -------------|
D|------------------------------11------------------9-----------------------|
A|--------------------------------------------------------------------------|
E|--------------------------------------------------------------------------|

 Verse

My life is like a sunny day
Always bright out never ever in the shade
Now that has all changed
There is nothing you can do to make me drown
Stop me right now
I'm not going to be the one to be held down, 
Even though that I'm low
I want you to know
It's time for me to ditch this heavy load

e   E    B    F#m   A   B
e|--7----7----9-----5---7------|
B|--9----7----10----5---7------|
G|--9----8----11----6---8------|
D|--9----9----11----7---9------|
A|--7----9----9-----7---9------|
E|--x----7----x-----5---7------|

Chorus

I'm burning up In the fire of my soul
I'm burning up There is no way I can stay in control
I'm burning up in the fire of my soul
I'm burning up there is no way,

    C#m    A    B
e|---9-----5----7---------|
B|---9-----5----7---------|
G|---9-----6----8---------|
D|---11----7----9---------|
A|---11----7----9---------|
E|---9-----5----7---------|

 The Next part is a keyboard section before the second solo tabbed out

 Keyboard solo

e|-------------------------------------------------/12-12--12-11--7-9-----|
B|---------------------------9-9------------------------------------------|
G|------------9h11-11b--9h11-----9-11-9h11p9------------------------------|
D|--/11~-9h11--------------------------------11~--------------------------|
A|------------------------------------------------------------------------|
E|------------------------------------------------------------------------|

e|--7h9-7h9-7h9-7h9-7h9p7---7h9-7h9-7h9p7----------------------------9-9-9-7-9-9-9-7h9p7-9~ ----|
B|------------------------9---------------9--7h9p7--------------9-12----------------------------|
G|-------------------------------------------------9-8~--8h9h11---------------------------------|
D|----------------------------------------------------------------------------------------------|
A|----------------------------------------------------------------------------------------------|
E|----------------------------------------------------------------------------------------------|

Solo #2

 Chords
     F#m   C#m
e|----9-----9----------------------------|
B|----10----9----------------------------|
G|----11----9----------------------------|
D|----11----11---------------------------|
A|----9-----11---------------------------|
E|----x-----9----------------------------|

e|-----9--------12------9------------------------------------|
B|-----10-(3x)--10-(4x)-10-(3x)--12p9~ -----7h9p7---7h9~ ----|
G|--11-11-------11------11------------------------9----------|
D|-----------------------------------------------------------|
A|-----------------------------------------------------------|
E|-----------------------------------------------------------|

e|--9---7h9~ --------------------12p9-7---7h9~ -----|
B|----9---------------------------------9-----------|
G|--------------------------------------------------|
D|-----------------14p11~ --------------------------|
A|--------------------------------------------------|
E|--------------------------------------------------|

e|-------------------------------------------------------------------------------------|
B|--14~ 14~ 12h14-14~ ------------7h9p7---7/9-12---------------------------------------|
G|---------------------------9h11--------9--------7h9--7h9-9~ --8h9p8------------------|
D|------------------------11-------------------------------------------11p9-11~ -------|
A|-------------------------------------------------------------------------------------|
E|-------------------------------------------------------------------------------------|

e|--------12----11-------12----11-------12----|
B|-----10----------10-------------10----------|
G|--11-------11-------11----11-------11-------|
D|--------------------------------------------|
A|--------------------------------------------|
E|--------------------------------------------|

e|--7h9p7---7~ ------------------------------------------------------------------|
B|--------9-----7h9p7------------------------------------------14----12h14~ -----|
G|--------------------9p8--------8h9p8----8h9p8----8h9p8----------13-------------|
D|------------------------9/11---------11-------11-------9/11--------------------|
A|-------------------------------------------------------------------------------|
E|-------------------------------------------------------------------------------|

 Metal Section

e|-----------------------------------|
B|-----------------------------------|
G|--6~ ------------------------------|
D|--6~ ------------------------------|
A|--4~ ------------------------------|
E|-----------------------------------|


e|------------------------------------|
B|------------------------------------|
G|--9-9--6~ ------2------4------------|
D|--9-9--6~ ------2------4------------|
A|--7-7--4~ ------0------2------------|
E|------------------------------------|

e|------------------------------------|
B|------------------------------------|
G|--9-9--4/6~ ------2------4----------|
D|--9-9--4/6~ ------2------4----------|
A|--7-7--2/4~ ------0------2----------|
E|------------------------------------|

e|---------------------------------------------------------------|
B|---------------------------------------------------------------|
G|---------------------------------------------------------------|
D|----6---6---7---6----4h6p4p0----2---2------4-2h4p2-------------|
A|--44--44--44--44--44-------- 00--00--00-22---------2/----------|
E|---------------------------------------------------------------|

e|---------------------------------------------------------------|
B|---------------------------------------------------------------|
G|---------------------------------------------------------------|
D|---------------------------------------------------------------|
A|--44-7-44-6-44-7-44-4-0--00-7-00-6-00-9-00-7-00-6h7------------|
E|---------------------------------------------------------------|

e|---------------------------------------------------------------|
B|---------------------------------------------------------------|
G|---------------------------------------------------------------|
D|----------------------------------9-11-------------------------|
A|--44-7-44-6-44-7-44-4-0--/7-6-7-9------------------------------|
E|---------------------------------------------------------------|

e|---------------------------------------------------------------|
B|---------------------------------------------------------------|
G|---------------------------------------------------------------|
D|--**---**---**---**------**---**---**---**---**----------------|
A|--44-7-44-6-44-7-44-4s0--00-7-00-6-00-9-00-7-00-6s7------------|
E|---------------------------------------------------------------|

e|------------------------------|
B|------------------------------|
G|--6------2------4-------------|
D|--6-(4X)-2-(2x)-4-(2x)--------|
A|--4------0------2-------------|
E|------------------------------|

Thats about as far as i got the outro solo is in key of C#m let me know if anyones got it.





************************************

| /   slide up
| \   slide down
| h   hammer-on
| p   pull-off
| ~   vibrato
| +   harmonic
| x   Mute note
| b   Bend
| pb  Pre-bend
| br  Bend release
| pbr Pre-bend release
| brb Bend release bend

************************************
Добавлено: 27.06.2016
Другие материалы по этой песне:
  • Аккорды и текст

Страница создана 27.06.2016
http://primanota.ru/the-expendables/burning-up-reprise-chords.htm
Привет, Гость.
Предлагаем пройти революционный курс по гитаре.
Подарок от PrimaNota.Ru, забирай!