PrimaNota.ru - самый крупный в мире бесплатный архив песенных текстов, аккордов, табулатур и нот


The Expendables - Bowl For Two - аккорды и текст, таба, бас-таба, видео

Регистрация Запомнить меня
Войти через:  Facebook Google Twitter Vk Yandex Mail.ru

The Expendables - Bowl For Two - аккорды и текст, таба, бас-таба, видео

Печатать
Просмотров: 183
Bowl For Two
The Expendables
Here are the chords for the song are pretty basic, bar chords and open chords. Also 
the solo a bit differently.


[These Chords are bar chords, 3rd fret, 5th fret, and 7th fret respectively]
Verse 2x

              G
But I said oh I
  D                    Em
I packed this bowl for two
    G
And I
     D                        Em
I'm gonna wanna smoke it with you

[These Chords are played open]

                    G
Yes you know it is time
         D                Em
For us to sit down and unwind
           G
I know the feeling, I know the feeling
        D          Em
So stay with me tonight
      G
Gonna kick back relax
D
Make sure the ganja's packed
Em
And we'll feel all right

[Back to bar chords]
Chorus
             G
We're flying high now
             D
We're flying high now
     Em
I cannot feel the ground
             G
We're flying high now
             D
We're flying high now
        Em
My world is spinning round


Play the Verse again (2x)


C[with G in the bass]*
So please don't run away
        Em
When my ganja's all gone
C*                           Em
Promise me that you're gonna stay
When my flight is all done
C*                             Em
There's only one thing left to do
C*
I got this one nug this frosty purple nug
         D
And it's big enough for two


Play Verse again 2x

Then Solo^^

Play Chorus

Play Verse again 2x

Then repeat the intro and out.

SOLO^^ (time code: 3:00)
e|----------------------------------------------12---------------------------|
B|-------------------------------------------15-----------15-----------------|
G|--14b---14p12h14---12-14-14b-p12---------12-----12--14b~~~~14--12-14-------|
D|---------------------------------14~---------------------------------14~---|
A|---------------------------------------------------------------------------|
E|---------------------------------------------------------------------------|

e|----------------------------------------------------------------|
B|----------------------------------------------------------------|
G|-----------12h14p12----------12h14h16---17--17--15h17-----------|
D|--12h14p12----------12h14h16------------------------------------|
A|----------------------------------------------------------------|
E|----------------------------------------------------------------|

e|--15-17-17b-p15----15~----15----15------------------------------------|
B|----------------17-----------15----17p-12----------------------15b(17)|
G|------------------------------------------12-14-14b-p12----12---------|
D|--------------------------------------------------------14------------|
A|----------------------------------------------------------------------|
E|----------------------------------------------------------------------|
Добавлено: 06.07.2012
Другие материалы по этой песне:
  • Аккорды и текст

Страница создана 23.03.2012
http://primanota.ru/the-expendables/bowl-for-two-chords.htm
Привет, Гость.
Предлагаем пройти революционный курс по гитаре.
Подарок от PrimaNota.Ru, забирай!