PrimaNota.ru - самый крупный в мире бесплатный архив песенных текстов, аккордов, табулатур и нот


The Expanders - Race Is Run - таба, видео

Регистрация Запомнить меня
Войти через:  Facebook Google Twitter Vk Yandex Mail.ru

The Expanders - Race Is Run - таба, видео

Печатать
Просмотров: 51
-------------------------------------------------------------------------------
                             Race Is Run - The Expanders
-------------------------------------------------------------------------------
Tabbed by:JBEAR
E-mail:

Tuning:
Standard

Main melody repeats throughout song. don't play bottom 3 strings. listen to the song for the rythem
e|----10---------10-----13-----13-----11-----10----------10-----8---8----6---|
B|----11---------11-----15-----15-----12-----11----------11-----6---6----6---|
G|----10---------10-----14-----14-----13-----10----------10-----8---8----7---|
D|----x----------------------------------------------------------------------|
A|----x----------------------------------------------------------------------|
E|----x----------------------------------------------------------------------|


second part. Only play bottom strings. listen to song for rythem. repeats throughout song
e|-----------------------------------------------------------------------------|
B|-----------------------------------------------------------------------------|
G|-----------------------------------------------------------------------------|
D|----8---5-------5---8---------------5-------8------------------5-------------|
A|------------8------------6---6--6-------8------------6--6-6---------8--------|
E|-------------------------------------------------6---------------------------|



e|---------------------------------------------------------------------------|
B|---------------------------------------------------------------------------|
G|---------------------------------------------------------------------------|
D|--8--8--5-----5--8-----------5-----8--5---------------5--------------------|
A|-----------8--------6--6--6-----8--------6------6--6-----8-----------------|
E|--------------------------------------------6------------------------------|

The Expanders home page:

http://theexpanders.net/


************************************

| /   slide up
| \   slide down
| h   hammer-on
| p   pull-off
| ~   vibrato
| +   harmonic
| x   Mute note
| b   Bend
| pb  Pre-bend
| br  Bend release
| pbr Pre-bend release
| brb Bend release bend

************************************
Добавлено: 06.08.2013
Другие материалы по этой песне:
  • Аккорды и текст

Страница создана 06.08.2013
http://primanota.ru/the-expanders/race-is-run-chords.htm
Привет, Гость.
Предлагаем пройти революционный курс по гитаре.
Подарок от PrimaNota.Ru, забирай!