PrimaNota.ru - самый крупный в мире бесплатный архив песенных текстов, аккордов, табулатур и нот


The Envy Corps - The Cursing Choir - таба, видео

Регистрация Запомнить меня
Войти через:  Facebook Google Twitter Vk Yandex Mail.ru

The Envy Corps - The Cursing Choir - таба, видео

Печатать
Просмотров: 71
-------------------------------------------------------------------------------
                      THE CURSING CHOIR - The Envy Corps
-------------------------------------------------------------------------------
Tabbed by: Jonathan O'Neal
Email: jdo.oneal@gmail.com

Tuning: Standard

Guitar 1: Acoustic Guitar
Guitar 2: Bass
Guitar 3: Slide Guitar (just for the solo)
Guitar 4: Keyboard (capo fifth fret)

SONG STRUCTURE:
Intro x1
Verse x2
Interlude x1
Verse x2
Interlude x2
Bridge x1
Verse x2 (w/ slide guitar solo first time, then Keyboard solo second time)
Interlude x2
Bridge x2
Outro x2

Chords used:
         e|--0----          e|--0----|          e|--1----||
         B|--1----          B|--1----|          B|--3----||
         G|--2----          G|--0----|          G|--2----||
A minor: D|--2---- C major: D|--2----| D minor: D|--0----||
         A|--0----          A|--3----|          A|--0----||
         E|--0----          E|--3----|          E|-------||

          e|--3----|     e|--4----|         e|--1----|
          B|--0----|     B|--3----|         B|--1----|
          G|--0----|     G|--4----|         G|--2----|
 G major: D|--0----| E7? D|--2----| F major D|--3----|
          A|--2----|     A|--2----|         A|--3----|
          E|--3----|     E|--0----|         E|--1----|

         e|--0----|
         B|--0----|
         G|--1----|
E major: D|--2----|
         A|--2----|
         E|--0----|


VERSES (the verses are the same as the intro and outro):

Guitar 1:

Just strum the chords in this order (look at chord diagram):


A minor    C major    D minor    G major     E7?


For the strumming pattern, just strum right after the bass each time (also just 
listen to the song). This is the same 
strumming pattern throughout the song.


Guitar 2:

e|----------------------------------------------------|
B|----------------------------------------------------|
G|--------------5-----5-----7-----7-------------------|
D|--7-----7--------5-----5-----7-----7--5-----6-------|
A|-----7-----7-----------------------------5-----7----|
E|----------------------------------------------------|


INTERLUDE:

Guitar 1:

F major    C major    A minor    E major


Guitar 2:

e|----------------------------------------------------|
B|----------------------------------------------------|
G|----------------------------------------------------|
D|----------------------------7-----7-----------------|
A|--8-----8--------10-----10-----7-----7--7-----7-----|
E|-----8-----8--8------8---------------------7-----7--|


BRIDGE:

Guitar 1:

C major    D minor


Guitar 2:

e|--------------|
B|--------------|
G|--5-----7-----|
D|-----5-----7--|
A|--------------|
E|--------------|


SLIDE GUITAR SOLO (look at song structure on when to play it):

*Use a slide

e|-------------------------------------------------|
B|-------------------------------------------------|
G|--9/15-15--12\9-9--7/9-9---7---------------------|
D|------------------------------6/7--7\6-6--6/7-7--|
A|-------------------------------------------------|
E|-------------------------------------------------|


KEYBOARD SOLO (capo on fifth fret):

e|--------0-2-0-----------0-2-0-----------2-3-2-----------2-3-2------|
B|------0-------0-------0-------0-------0-------0-------0-------0----|
G|----0-----------0---0-----------0---0-----------0---0-----------0--|
D|--2---------------2---------------0---------------0----------------|
A|-------------------------------------------------------------------|
E|-------------------------------------------------------------------|

This next arpeggio is hard but I do it by barring the first two notes with my 
middle finger and hitting
the note on the fifth fret with my pinkie (my ring finger resting on the third fret).

e|--------3-5-3-----------3-5-3-------------0--------------------------|
B|------1-------1-------1-------1---------3---3-----------1-0----------|
G|----2-----------2---2-----------2-----2-------2-------2-----2-0------|
D|--2---------------2---------------0-4-----------4-1-4-----------4-2--|
A|---------------------------------------------------------------------|
E|---------------------------------------------------------------------|

So that's it, comment if you think I have something wrong. Thanks!
Добавлено: 21.11.2013
Вам также может быть интересно:
Другие материалы по этой песне:
  • Аккорды и текст

Страница создана 21.11.2013
http://primanota.ru/the-envy-corps/the-cursing-choir-chords.htm
Привет, Гость.
Предлагаем пройти революционный курс по гитаре.
Подарок от PrimaNota.Ru, забирай!