PrimaNota.ru - самый крупный в мире бесплатный архив песенных текстов, аккордов, табулатур и нот


The Envy Corps - Med Song - таба, видео

Регистрация Запомнить меня
Войти через:  Facebook Google Twitter Vk Yandex Mail.ru

The Envy Corps - Med Song - таба, видео

Печатать
Просмотров: 62
-------------------------------------------------------------------------------
                             MED. SONG - THE ENVY CORPS
-------------------------------------------------------------------------------
Tabbed by: shinyps1

Tuning: EADGBE STANDARD

This is a great catchy track from The Envy Corp's 2nd album "It Culls You" 
which was recently re-released as a fantastic live album (Live At ARC). 
I've tabbed the main riff and the solo by ear
so don't expect all the fillers and stuff towards the end. 
This is the main riff and the solo, 
I hope you enjoy playing this really catchy riff! ^.^


main riff:

e|-------------------------------------------------------------------------|
B|-------------------------------------------------------------------------|
G|-------------------------------------------------------------------------|
D|----------------------6---------------4----------------3-----------------|
A|----------6-----6----------6-----6---------6-----6----------6-----6--6---|
E|-----4-------------------------------------------------------------------|

e|-------------------------------------------------------------------------|
B|-------------------------------------------------------------------------|
G|-------------------------------------------------------------------------|
D|----------------------2--------------------------------------------------|
A|----------6-----6----------6-----6---------6-----6----------6-----6--6---|
E|-----4--------------------------------7----------------6-----------------|

solo:

e|----------------------------------|
B|----------------------------------|
G|----------------------------------|
D|----------------------------------| x2
A|--------------------7p--6---------|
E|------4h--6--6--6-----------------|

e|----------------------------------|
B|----------------------------------|
G|----------------------------------|
D|----------------------------------|
A|--------------------4p--2---------|
E|------2h--4--4--4-----------------|



************************************

| h   hammer-on
| p   pull-off

************************************
Добавлено: 14.06.2016
Другие материалы по этой песне:
  • Аккорды и текст

Страница создана 14.06.2016
http://primanota.ru/the-envy-corps/med-song-chords.htm
Привет, Гость.
Предлагаем пройти революционный курс по гитаре.
Подарок от PrimaNota.Ru, забирай!