PrimaNota.ru - самый крупный в мире бесплатный архив песенных текстов, аккордов, табулатур и нот


The Enemy - Aggro - текст песни, таба, бас-таба, видео

Регистрация Запомнить меня
Войти через:  Facebook Google Twitter Vk Yandex Mail.ru

The Enemy - Aggro - текст песни, таба, бас-таба, видео

Печатать
Просмотров: 149
Aggro-The Enemy

I Believe This Is Played Through A Fender Telecaster.

Its In Drop D Tuning

Intro/Verse 1 + 2

d---------------------------------------|
A---------------------------------------|
F---------------------------------------|
C---------------------------------------|
G-13-13-13-13--11-11-11-11-14-14-14-14--|
D-11-11-11-11--9--9--9--9--12-12-12-12--|

Verse 2 Only

Guitar 2

e-11-11-11-11--9--9---12-12-12--|
B-11-11-11-11--9--9---12-12-12--|
G-11-11-11-11--9--9---12-12-12--|
D-13-13-13-13--11-11--14-14-14--|
A-------------------------------|
E-------------------------------|

Pre-Chorus

d----------------------------------|
A----------------------------------|
F----------------------------------|
C----------------------------------|
G-6-6-6-6-6--4-4-4-4-4--7-7-7-7-7--|
D-4-4-4-4-4--2-2-2-2-2--5-5-5-5-5--|

Chorus

d-----------------------------------------------------------------|
A-----------------------------------------------------------------|
F-----------------------------------------------------------------|
C------------------------------------------------------6-6-6-6-6--|
G-13-13-13-13--11-11-11-11-11--8-8-8-8-8-8--6-6-6-6-6--4-4-4-4-4--|
D-11-11-11-11--9--9--9--9--9---6-6-6-6-6-6--4-4-4-4-4-------------|

Guitar 2
  
W/ Lots of Vibrato

d----------------------------------------------------------------|
A----------------------------------------------------------------|
F----------------------------------------------------------------|
C----------------------------------------------------------------|
G----------------------------------------------------------------|
D-11-11-11-11--9--9--9--9--9--6-6-6-6-6-6--4-4-4-4-4--9-9-9-9-9--|

Bridge

d--------------------------------------|
A--------------------------------------|
F--------------------------------------|
C--------------------------------------|
G-13~~~~~~~~~~~~~~~~~~~~~~~~~~~~~~~~~--|
D-11~~~~~~~~~~~~~~~~~~~~~~~~~~~~~~~~~--| x1

Then:

d---------------------------|
A---------------------------|
F---------------------------|
C----------------8~~~~--8b--|
G-6~~~~--4--3-2--6~~~~--6b--|
D-4~~~~--2--1-0-------------| x3

Then:

d----------------------------------------------|
A----------------------------------------------|
F----------------------------------------------|
C----------------------------------------------|
G-6-6-6-6-6-6--7-7-7-7-7-7-7--8-8-8-8-8-8-8-8--|
D-4-4-4-4-4-4--5-5-5-5-5-5-5--6-6-6-6-6-6-6-6--| x1

And I Think Guitar 2 does:

d-------------------------------------------------|
A-------------------------------------------------|
F-------------------------------------------------|
C-------------------------------------------------|
G-------------------------------------------------|
D-1///////////////////////////////////////////21--|

Order

Intro
Verse
Pre-Chorus
Chorus
Intro
Verse
Pre-Chorus
Chorus
Bridge
Chorus
Добавлено: 04.11.2013
Другие материалы по этой песне:
  • Аккорды и текст

Страница создана 10.07.2013
http://primanota.ru/the-enemy/aggro-chords.htm
Привет, Гость.
Предлагаем пройти революционный курс по гитаре.
Подарок от PrimaNota.Ru, забирай!