PrimaNota.ru - самый крупный в мире бесплатный архив песенных текстов, аккордов, табулатур и нот


The Drowners - Pure Pleasure - аккорды и текст, таба, видео

Регистрация Запомнить меня
Войти через:  Facebook Google Twitter Vk Yandex Mail.ru

The Drowners - Pure Pleasure - аккорды и текст, таба, видео

Печатать
Просмотров: 138
Pure Pleasure
The Drowners
Pure Pleasure

Play this in the intro or G major and D major chords, ending on a Bm then A

e|-2-2-0-3-2-0-----------2-2-0-3-2-0-----------2-2-0-3-2-0------------2-2-0-3-2-0-2-2-0-3-2-0|
B|-------------3-3-3-2-3-------------3-3-3-2-3-------------3-3-3-2-3-------------------------|
G|-------------------------------------------------------------------------------------------|
D|-------------------------------------------------------------------------------------------|
A|-------------------------------------------------------------------------------------------|
E|-------------------------------------------------------------------------------------------|

Verse:

G             D
It feels like hell, 
      G                  D
but I give myself if you could. 
G          D
You settle down,
          Bm                   A
But I was holding my eyes from blinking. 

Pre-chorus:

     Bm      A               D
And I almost choked when you offered me a smoke on your cigarette.

Chorus:

D        Bm
Dry your eyes, 
        G        A
This is only the first half. 
        D          Bm
Well it took me by surprise 
         G          A
When you held me to your chest and said, 
D                   Bm
I could love you in secret. 
G                   A
I could love you in secret. 
D                   Bm
I could love you in secret, 
G              D
But no one can know.

e|-2-2-0-3-2-0-----------2-2-0-3-2-0-----------2-2-0-3-2-0------------2-2-0-3-2-0-2-2-0-3-2-0|
B|-------------3-3-3-2-3-------------3-3-3-2-3-------------3-3-3-2-3-------------------------|
G|-------------------------------------------------------------------------------------------|
D|-------------------------------------------------------------------------------------------|
A|-------------------------------------------------------------------------------------------|
E|-------------------------------------------------------------------------------------------|
or
G        D x4
Bm       A

G                  D
And you thought it rained, 
       G               
Yeah I planned my jokes 
           D
Before I'd see you. 
G              D
And it sounded strange, 
               Bm                 A
But there was reason for sadness between you. 
        G          D         G           D
There's reason for sadness between you. 
        G          D            Bm        A
There's reason for sadness between you.

Pre-chorus:

     Bm      A               D
And I almost choked when you offered me a smoke on your cigarette.

Chorus:

D        Bm
Dry your eyes, 
        G        A
This is only the first half. 
        D          Bm
Well it took me by surprise 
         G          A
When you held me to your chest and said, 
D                   Bm
I could love you in secret. 
G                   A
I could love you in secret. 
D                   Bm
I could love you in secret, 
G              D
But no one can know.


e|----5-5-5-5--2-0-2----------5-5-5-5-2-0-2-0-2----5-5-5-5-2-0-----0-0-2---------------------|
B|------------------------------------------------------------------------5-3----------------|
G|-------------------------------------------------------------------------------------------|
D|-------------------------------------------------------------------------------------------|
A|-------------------------------------------------------------------------------------------|
E|-------------------------------------------------------------------------------------------|
or same chords as the verse


G                   D
I could love you in secret. 
G                   D
I could love you in secret. 
G                   D
I could love you in secret, 
Bm             A
but no one can know. 
     G
In a dream I had, 
   D
it all made sense. 
     G
In a dream I had, 
    D
it all made sense.
      G
In a dream I had, 
    D
it all made sense. 
Bm
In a dream I had, 
A
it all made sense to me.

D
Добавлено: 10.06.2015
Вам также может быть интересно:
Другие материалы по этой песне:
  • Аккорды и текст

Страница создана 10.06.2015
http://primanota.ru/the-drowners/pure-pleasure-chords.htm
Привет, Гость.
Предлагаем пройти революционный курс по гитаре.
Подарок от PrimaNota.Ru, забирай!