PrimaNota.ru - самый крупный в мире бесплатный архив песенных текстов, аккордов, табулатур и нот


The Drills - Youre Not Happy Till Im Not Happy - таба, видео

Регистрация Запомнить меня
Войти через:  Facebook Google Twitter Vk Yandex Mail.ru

The Drills - Youre Not Happy Till Im Not Happy - таба, видео

Печатать
Просмотров: 72
-----------------------------------------------------------------
You're Not Happy Till I'm Not Happy - The Drills
-----------------------------------------------------------------
Tabbed by: themaierster
Email: paulhmaier@gmail.com

Tuning: standard

I don't have the solo down yet, but here is the rhythm portion of this song.
Email me if you notice any problems, or have any questions.


      Intro 
e|---------------------------------------------------------------|
B|---------------------------------------------------------------|
G|---------------------------------------------------------------|
D|-7/9--x-x-x-x-x-x---7/9--x-x-x-x-x-x---7/9--12-9---7-2---------|
A|-7/9--x-x-x-x-x-x---7/9--x-x-x-x-x-x---7/9--12-9---7-2---------|
E|-5/7--x-x-x-x-x-x---5/7--x-x-x-x-x-x---5/7--10-7---5-0---------|  X4

Verse
     (go.....)                  (down....)
e|---------------------------------------------------------------|
B|---------------------------------------------------------------|
G|---------------------------------------------------------------|
D|--9---9-9-9 9-9-9---7-7-7-7-7-7-7-12---12-12-12-12-12-12-------|
A|--9---9-9-9-9-9-9---7-7-7-7-7-7-7-12---12-12-12-12-12-12-------|
E|--7---7-7-7-7-7-7---5-5-5-5-5-5-5-10---10-10-10-10-10-10-------|

e|------------------|---------------------------------------------|
B|------------------|---------------------------------------------|
G|-5---5-5-5-5-5-5--|---------------------------------------------|
D|-5---5-5-5-5-5-5--|9---9-9-9-9-9-9-7---7-7-7-7-7-7-12---12------|
A|-3---3-3-3-3-3-3--|9---9-9-9-9-9-9-7---7-7-7-7-7-7-12---12------|
E|------------------|7---7-7-7-7-7-7-5---5-5-5-5-5-5-10---10------|

e|-----------------------------------------|----------------------|
B|-----------------------------------------|----------------------|
G|----------------5---5-5-5-5-5-5-5-x-x----|----------------------|
D|-12-12-12-12-12-5---5-5-5-5-5-5-5-x-x----|----------------------|
A|-12-12-12-12-12-3---3-3-3-3-3-3-3-x-x----|----------------------|
E|-10-10-10-10-10--------------------------|----------------------|

Pre-chorus
(I dont wanna stay)
e|---------------------------------------------------------------|
B|---------------------------------------------------------------|
G|--9-9--9-9-9--9-9-9---12--7---5-5--5-5-5--5-5-5--12------------|
D|--9-9--9-9-9--9-9-9---12--7---5-5--5-5-5--5-5-5--12---10-------|
A|--7-7--7-7-7--7-7-7---10--5---3-3--3-3-3--3-3-3--10---10-------|
E|-------------------------------------------------------8-------|

e|------------------------------------------------------------------|
B|------------------------------------------------------------------|
G|----------------------------12------------------------------------|
D|-12-12--12-12-12--12-12-12--12--12--7-----------------------------|
A|-12-12--12-12-12--12-12-12--10--12--7-----------------------------|
E|-10-10--10-10-10--10-10-10------10--5--3b5------------------------|

e|---------------------------------------------------------------|
B|---------------------------------------------------------------|
G|--9-9--9-9-9--9-9-9---12--7---5-5--5-5-5--5-5-5--12------------|
D|--9-9--9-9-9--9-9-9---12--7---5-5--5-5-5--5-5-5--12---10-------|
A|--7-7--7-7-7--7-7-7---10--5---3-3--3-3-3--3-3-3--10---10-------|
E|-------------------------------------------------------8-------|
                                         Chorus
                                         (your not happy....)
e|-------------------------------------|--------------------------|
B|-------------------------------------|--------------------------|
G|----------------------------12-------|--------------------------|
D|-12-12--12-12-12--12-12-12--12--12---|7---7-7-7-7-7-7-7--7--7---|
A|-12-12--12-12-12--12-12-12--10--12---|7---7-7-7-7-7-7-7--7--7---|
E|-10-10--10-10-10--10-10-10------10---|5---5-5-5-5-5-5-5b-5b-5b--|


e|---------------------------------------------------------------|
B|---------------------------------------------------------------|
G|---------------------------------------------------------------|
D|-7--7--7--7--7-----7---7-7-7-7-7-7-7--7--7--7--7--7--7--7------|
A|-7--7--7--7--7-----7---7-7-7-7-7-7-7--7--7--7--7--7--7--7------|
E|-5b-5b-5b-5b-5b----5---5-5-5-5-5-5-5b-5b-5b-5b-5b-5b-5b-5b-----|
                           (yeah!...)
e|----------------------------------------------------------------|
B|----------------------------------------------------------------|
G|---------12----------------2-------2------2---------------------|
D|-7-------12---10--12-------2--2----2--2---2--2------------------|
A|-7-------10---10--12-------0--2----0--2---0--2------------------|
E|-5-------------8---10---------0-------0------0------------------|

then...

Intro x2
verse
pre-chorus 
chorus
solo

still working on the solo



| /  slide up
| \  slide down
| h  hammer-on
| p  pull-off
| ~  vibrato
| +  harmonic
| x  Mute note
Добавлено: 22.06.2013
Вам также может быть интересно:
Другие материалы по этой песне:
  • Аккорды и текст

Страница создана 22.06.2013
http://primanota.ru/the-drills/youre-not-happy-till-im-not-happy-chords.htm
Привет, Гость.
Предлагаем пройти революционный курс по гитаре.
Подарок от PrimaNota.Ru, забирай!