PrimaNota.ru - самый крупный в мире бесплатный архив песенных текстов, аккордов, табулатур и нот


The Drills - Middle Finger - таба, видео

Регистрация Запомнить меня
Войти через:  Facebook Google Twitter Vk Yandex Mail.ru

The Drills - Middle Finger - таба, видео

Печатать
Просмотров: 64
                The Drills - Middle Finger

e||------------------------|-----------------------|-----------------------|----------------------||
B||------------------------|-----------------------|-----------------------|----------------------||
G||o-11-11---9--11-11---9--|-11-11---9--11-11---9--|-11-11---9--11-11---9--|-11------------------o||
D||o-12-12---10-12-12---10-|-12-12---10-12-12---10-|-12-12---10-12-12---10-|-12------------------o||
A||--12-12---10-12-12---10-|-12-12---10-12-12---10-|-12-12---10-12-12---10-|-12-------------------||
E||--10-10---8--10-10---8--|-10-10---8--10-10---8--|-10-10---8--10-10---8--|-10-------------------||

^(Joined by 2nd guitar on repeat)^

e---------------------------------|---------------------------------|
B---------------------------------|---------------------------------|
G---------------------------------|---------------------------------|
D---------------------------------|---------------------------------|
A-5-5-5-5-5-5-5-5-5-5-5-5-5-5-5-5-|-3-3-3-3-3-3-3-3-----------------|
E---------------------------------|-----------------3-3-3-3-3-3-3-3-|
 |- - - - - - - - - - - - - - - - - - - - - - - - - - - - - - - - -|
   P.M

e---------------------------------|---------------------------------|
B---------------------------------|---------------------------------|
G---------------------------------|---------5-5-5-5-----------------|
D---------------------------------|-5-5-5-5-5-5-5-5-5-5-5-5-5-5-5-5-|
A-5-5-5-5-5-5-5-5-5-5-5-5-5-5-5-5-|-3-3-3-3-3-3-3-3-5-5-5-5-5-5-5-5-|
E---------------------------------|-----------------3-3-3-3-3-3-3-3-|
 |- - - - - - - - - - - - - - - -| |- - - - - - - - - - - - - - - -|
   P.M                              crescendo (getting louder)

e||----------------------|----------------------|----------------------|-------------------||
B||----------------------|----------------------|-10-10-10-10-10-10-10-|-------------------||
G||o---------------------|-------------------12~|~12-12-12-12-12-12-12-|-12------12---12--o||
D||o-12---12---12---12---|-12---12---12---12----|----------------------|-12-12---12---12--o||
A||--12---12---12---12---|-12---12---12---12----|----------------------|-10-12---10---10---||
E||--10---10---10---10---|-10---10---10---10----|----------------------|----10-------------||
                                                           .5   1   1.5   2
                                                        |- - - - - - - - - - |
                                                         gradual bend

e||--------------------------|-------------------------|-------------------------|--------------------||
B||--------------------------|-------------------------|-------------------------|--------------------||
G||o-------------------------|-------------------------|-10-10-10-10-10-10-10-10-|-12------12---12- o-||
D||o-12-12-12-12-12-12-12-12-|-12-12-12-12-12-12-12-12-|-10-10-10-10-10-10-10-10-|-12-12---12---12- o-||
A||--12-12-12-12-12-12-12-12-|-12-12-12-12-12-12-12-12-|-8--8--8--8--8--8--8--8--|-10-12---10---10----||
E||--10-10-10-10-10-10-10-10-|-10-10-10-10-10-10-10-10-|-------------------------|----10--------------||

e-----------------|
B-----------------|
G-12------12--12--|
D-12--12--12--12--|
A-10--12--10--10--|
E-----10----------|

e-----------------------|-----------------------|-----------------------|---------------------|
B-----------------------|-----------------------|-----------------------|---------------------|
G-11-11---9--11-11---9--|-11-11---9--11-11---9--|-11-11---9--11-11---9--|-11-11---------------|
D-12-12---10-12-12---10-|-12-12---10-12-12---10-|-12-12---10-12-12---10-|-12-12---------------|
A-12-12---10-12-12---10-|-12-12---10-12-12---10-|-12-12---10-12-12---10-|-12-12---------------|
E-10-10---8--10-10---8--|-10-10---8--10-10---8--|-10-10---8--10-10---8--|-10-10---------------|

e---------------------------------|---------------------------------|
B---------------------------------|---------------------------------|
G---------------------------------|---------------------------------|
D---------------------------------|---------------------------------|
A-5-5-5-5-5-5-5-5-5-5-5-5-5-5-5-5-|-3-3-3-3-3-3-3-3-----------------|
E---------------------------------|-----------------3-3-3-3-3-3-3-3-|
 |- - - - - - - - - - - - - - - - - - - - - - - - - - - - - - - - -|
   P.M

e---------------------------------|---------------------------------|
B---------------------------------|---------------------------------|
G---------------------------------|---------5-5-5-5-----------------|
D---------------------------------|-5-5-5-5-5-5-5-5-5-5-5-5-5-5-5-5-|
A-5-5-5-5-5-5-5-5-5-5-5-5-5-5-5-5-|-3-3-3-3-3-3-3-3-5-5-5-5-5-5-5-5-|
E---------------------------------|-----------------3-3-3-3-3-3-3-3-|
 |- - - - - - - - - - - - - - - -| |- - - - - - - - - - - - - - - -|
   P.M                              crescendo (getting louder)

e||----------------------|----------------------|----------------------|-------------------||
B||----------------------|----------------------|-10-10-10-10-10-10-10-|-------------------||
G||o---------------------|-------------------12~|~12-12-12-12-12-12-12-|-12------12---12--o||
D||o-12---12---12---12---|-12---12---12---12----|----------------------|-12-12---12---12--o||
A||--12---12---12---12---|-12---12---12---12----|----------------------|-10-12---10---10---||
E||--10---10---10---10---|-10---10---10---10----|----------------------|----10-------------||
                                                           .5   1   1.5   2
                                                        |- - - - - - - - - - |
                                                         gradual bend

e||--------------------------|-------------------------|-------------------------|--------------------||
B||--------------------------|-------------------------|-------------------------|--------------------||
G||o-------------------------|-------------------------|-10-10-10-10-10-10-10-10-|-12------12---12- o-||
D||o-12-12-12-12-12-12-12-12-|-12-12-12-12-12-12-12-12-|-10-10-10-10-10-10-10-10-|-12-12---12---12- o-||
A||--12-12-12-12-12-12-12-12-|-12-12-12-12-12-12-12-12-|-8--8--8--8--8--8--8--8--|-10-12---10---10----||
E||--10-10-10-10-10-10-10-10-|-10-10-10-10-10-10-10-10-|-------------------------|----10--------------||

e-----------------|
B-----------------|
G-12------12--12--|
D-12--12--12--12--|
A-10--12--10--10--|
E-----10----------|

e|-----------------------|----------------------|----------------------|-----------------------|
B|-----------------------|----------------------|----------------------|-----------------------|Joined
G|o-------10----------12-|-------10----------12-|-------10----------12-|-------10----------12-o|by 2nd
D|o-12-12-10----10-10-12-|-12-12-10----10-10-12-|-12-12-10----10-10-12-|-12-12-10----10-10-12-o|guitar
A|--12-12-8-----10-10-10-|-12-12-8-----10-10-10-|-12-12-8-----10-10-10-|-12-12-8-----10-10-10--|on
E|--10-10-------8--8-----|-10-10-------8--8-----|-10-10-------8--8-----|-10-10-------8--8------|repeat

e------------------|------------------|-----------------------|------------------|
B------------------|------------------|-----------------------|------------------|
G------------------|---------------10~|~-10-10-10-10-10-10-10-|-12------12---12--|
D-12---------------|---------------10~|~-10-10-10-10-10-10-10-|-12-12---12---12--|
A-12---------------|---------------8~~|~-8--8--8--8--8--8--8--|-10-12---10---10--|
E-10---------------|------------------|-----------------------|----10------------|

e||----------------------|----------------------|----------------------|-------------------||
B||----------------------|----------------------|-10-10-10-10-10-10-10-|-------------------||
G||o---------------------|-------------------12~|~12-12-12-12-12-12-12-|-12------12---12--o||
D||o-12---12---12---12---|-12---12---12---12----|----------------------|-12-12---12---12--o||
A||--12---12---12---12---|-12---12---12---12----|----------------------|-10-12---10---10---||
E||--10---10---10---10---|-10---10---10---10----|----------------------|----10-------------||
                                                           .5   1   1.5   2
                                                        |- - - - - - - - - - |
                                                         gradual bend

e||--------------------------|-------------------------|-------------------------|------------------ ||
B||--------------------------|-------------------------|-------------------------|------------------ ||
G||o-------------------------|-------------------------|-10-10-10-10-10-10-10-10-|-12------12---12- o||
D||o-12-12-12-12-12-12-12-12-|-12-12-12-12-12-12-12-12-|-10-10-10-10-10-10-10-10-|-12-12---12---12- o||
A||--12-12-12-12-12-12-12-12-|-12-12-12-12-12-12-12-12-|-8--8--8--8--8--8--8--8--|-10-12---10---10-- ||
E||--10-10-10-10-10-10-10-10-|-10-10-10-10-10-10-10-10-|-------------------------|----10------------ ||

e-----------------|------------|
B-----------------|------------|
G-12------12--12--|------------|
D-12--12--12--12--|-12\--------|
A-10--12--10--10--|-12\--------|
E-----10----------|-10\--------|
Добавлено: 23.09.2013
Другие материалы по этой песне:
  • Аккорды и текст

Страница создана 23.09.2013
http://primanota.ru/the-drills/middle-finger-chords.htm
Привет, Гость.
Предлагаем пройти революционный курс по гитаре.
Подарок от PrimaNota.Ru, забирай!