PrimaNota.ru - самый крупный в мире бесплатный архив песенных текстов, аккордов, табулатур и нот


The Dreadnoughts - Boneyard - таба, видео

Регистрация Запомнить меня
Войти через:  Facebook Google Twitter Vk Yandex Mail.ru

The Dreadnoughts - Boneyard - таба, видео

Печатать
Просмотров: 172
One of my first tabs, some mistakes down there.


Repeat this:

e----------------------------------| 
B----------------------------------| 
G----------------------------------| 
D----------------------------------| 
A--5---5-5---------------6---6-6---|  
E---------5---5-5-6---6-6----------|



Riff starting
e----------------------------------| 
B----------------------------------| 
G----2----8------------------------| 
D----2----8------------------------| 
A----0----6------------------------|  
E----------------------------------|



e-------------------------------------------------------------------------------| 
B-------------------------------------------------------------------------------| 
G---7-x-7-7----3---2------7-x-7-7---10-10-10----14-14-x-14-14----12-12-x-12-12--| 
D---7-x-7-7----3---2------7-x-7-7---10-10-10----14-14-x-14-14----12-12-x-12-12--| 
A---5-x-5-5----1---0------5-x-5-5---8--8--8-----12-12-x-12-12----10-10-x-10-10--|  
E-------------------------------------------------------------------------------|


e---------------------------------------------------------------------| 
B---------------------------------------------------------------------| 
G--10-7-8-12----14-14-x-14-14----12-12-x-12-12------7--5--3----2--7---| 
D--10-7-8-12----14-14-x-14-14----12-12-x-12-12------7--5--3----2--7---|
A--8--5-6-10----12-12-x-12-12----10-10-x-10-10------5--3--1----0--5---|
E---------------------------------------------------------------------|
Добавлено: 14.11.2015
Другие материалы по этой песне:
  • Аккорды и текст

Страница создана 14.11.2015
http://primanota.ru/the-dreadnoughts/boneyard-chords.htm
Привет, Гость.
Предлагаем пройти революционный курс по гитаре.
Подарок от PrimaNota.Ru, забирай!