PrimaNota.ru - самый крупный в мире бесплатный архив песенных текстов, аккордов, табулатур и нот


The Downtown Struts - Postcards - бас-таба, видео

Регистрация Запомнить меня
Войти через:  Facebook Google Twitter Vk Yandex Mail.ru

The Downtown Struts - Postcards - бас-таба, видео

Печатать
Просмотров: 50
This one is one of my favorite bands, and i really did my best to figure it out.
there are some little mistakes, but i did the best i can.
hope you enjoy it.

Downtown struts - Postcards

Intro

Guitar only then bass comes in at
''i dont know if we Will....''
G|---------------------------------------------------------------------|
D|---------------------------------------------------------------------|
A|---------------------------------------------------------------------|
E|-7-7-7-7-7-7-7-7-7-7-7-7-7-7-7-7-7-7-7-7-7-7-7-7-7-7-7-7-7-7-7-7-7-7-|

2X
G|-------------------------------------------------------------|
D|-------------------------------------------------------------|
A|-7-7-7-6-----6-7-7-7-6-----6-7-7-7-6-----6-7-7-7-6-----------|
E|--------7-7-7---------7-7-7---------7-7-7---------7-7-7------|

Chorus:
''Were comming down...''

G|------------------------------------------------------------|
D|------------------------------------------------------------|
A|---------------2-2-2-2-2-2-2-2---------------2-2-2-2--------|
E|0-0-0-0-0-0-0-0---------------0-0-0-0-0-0-0-0-------2-2-2-2-|

G|------------------------------------------------------------|
D|------------------------------------------------------------|
A|---------------2-2-2-2-2-2-2-2---------------2-2-2-2--------|
E|0-0-0-0-0-0-0-0---------------0-0-0-0-0-0-0-0-------2-2-2-2-|

G|-------------------------------------------------------------|
D|-------------------------------------------------------------|
A|---------------2-2-2-2-2-2-2-2---------------2-2-2-2-4-4-4-4-|
E|0-0-0-0-0-0-0-0---------------0-0-0-0-0-0-0-0----------------|

G|-------------------------------------------------------------|
D|-------------------------------------------------------------|
A|---------------2-2-2-2-2-2-2-2---------------2-2-2-2-4-4-4-4-|
E|0-0-0-0-0-0-0-0---------------0-0-0-0-0-0-0-0----------------|

G|---------------------------------------------------------------------|
D|---------------------------------------------------------------------|
A|---------------------------------------------------------------------|
E|-7-7-7-7-7-7-7-7-7-7-7-7-7-7-7-7-7-7-7-7-7-7-7-7-7-7-7-7-7-7-2-2-2-2-|

''i know your place...''
G|--------------------------------------------------------------------------------------|
D|--------------------------------------------------------------------------------------|
A|--6-7-9-9--9-7-6--------6-7-9-9--9-7-6--------6-7-9-9--9-7-6--------6-7-9-9--9-7-6----|
E|-7--------------7-7----7--------------7-7----7--------------7-7----7--------------7-7-|

''you dont care...''             ''you're alright...''

G|--------------------------------------------------------------------------|
D|--------------------------------------------------------------------------|
A|--------------------------------------------------------------------------|
E|-0-0-0-0-0-0-0-0-0-0-0-0-0-0-0-0-0-0-0-9-9-9-9-9-9-9-9-9-9-9-9-9-9-9-9-9--|

G|------------------------------------------------------------------|
D|------------9--------9-----------------------9--------9-----------|
A|--------7-9------------9-7----------------7-9----------9-7--------|
E|--7---9------------------------------7---9------------------------|

2x
G|---------------------------------------------------------------|
D|---------------------------------------------------------------|
A|-7-7-7-6-----6-7-7-7-6-----6-7-7-7-6-----6-7-7-7-6-------------|
E|--------7-7-7---------7-7-7---------7-7-7---------7-7-7--------|

G|-------------------------------------------------------------|
D|-------------------------------------------------------------|
A|---------------2-2-2-2-2-2-2-2---------------2-2-2-2-4-4-4-4-|
E|0-0-0-0-0-0-0-0---------------0-0-0-0-0-0-0-0----------------|

G|-------------------------------------------------------------|
D|-------------------------------------------------------------|
A|---------------2-2-2-2-2-2-2-2---------------2-2-2-2-4-4-4-4-|
E|0-0-0-0-0-0-0-0---------------0-0-0-0-0-0-0-0----------------|

G|---------------------------------------------------------------------|
D|---------------------------------------------------------------------|
A|---------------------------------------------------------------------|
E|-7-7-7-7-7-7-7-7-7-7-7-7-7-7-7-7-7-7-7-7-7-7-7-7-7-7-7-7-7-2-2-2-2-2-|


''i know your place...''
G|--------------------------------------------------------------------------------------|
D|--------------------------------------------------------------------------------------|
A|--6-7-9-9--9-7-6--------6-7-9-9--9-7-6--------6-7-9-9--9-7-6--------6-7-9-9--9-7-6----|
E|-7--------------7-7----7--------------7-7----7--------------7-7----7--------------7-7-|

G|--------------------------------------------------------------------------|
D|--------------------------------------------------------------------------|
A|--------------------------------------------------------------------------|
E|-0-0-0-0-0-0-0-0-0-0-0-0-0-0-0-0-0-0-0-9-9-9-9-9-9-9-9-9-9-9-9-9-9-9-9-9--|

G|------------------------------------------------------------------|
D|------------9--------9-----------------------9--------9-----------|
A|--------7-9------------9-7----------------7-9----------9-7--------|
E|--7---9------------------------------7---9------------------------|

2x
G|-----------------------------------------------------------------------|
D|-----------------------------------------------------------------------|
A|-7-7-7-6-----6-7-7-7-6-----6-7-7-7-6-----6-7-7-7-6---------------------|
E|--------7-7-7---------7-7-7---------7-7-7---------7-7-7----------------|

G|--------------------------------------------------------------------------|
D|--------------------------------------------------------------------------|
A|-7---------------6-7---------------6-7---------------6-7------------------|
E|---7-7--9-9--7-7-----7-7--9-9--7-7------7-7--9-9--7-7-----7-7--9-9--7-7---|

''Across state lines...'

G|--------------------------------------------------------------------------|
D|--------------------------------------------------------------------------|
A|-7---------------6-7---------------6-7---------------6-7------------------|
E|---7-7--9-9--7-7-----7-7--9-9--7-7------7-7--9-9--7-7-----7-7--9-9--7-7---|

Outro:

G|------------------------------------------------------------------|
D|------------------------------------------------------------------|
A|--7-7-7-----------------------------------------------------------|
E|-------7---9-9-9-7------------------------------------------------|


Thanks for enjoying my tab, please contact me if you have notes or improvements.
Cheers

http://www.youtube.com/user/TrojanSkinhead94
Добавлено: 20.08.2013
Другие материалы по этой песне:
  • Аккорды и текст

Страница создана 20.08.2013
http://primanota.ru/the-downtown-struts/postcards-chords.htm
Привет, Гость.
Предлагаем пройти революционный курс по гитаре.
Подарок от PrimaNota.Ru, забирай!