PrimaNota.ru - самый крупный в мире бесплатный архив песенных текстов, аккордов, табулатур и нот


The Dopamines - Monroe - таба, видео

Регистрация Запомнить меня
Войти через:  Facebook Google Twitter Vk Yandex Mail.ru

The Dopamines - Monroe - таба, видео

Печатать
Просмотров: 107
-------------------------------------------------------------------------------
                             Monroe - The Dopamines
-------------------------------------------------------------------------------
Tabbed by: Jake Itterly

Tuning: Standard

Verse: "Keystone and carbombs....."

e|---------------------------------------------------------------------------|
B|---------------------------------------------------------------------------|
G|-5---------------5---------------------------------------------------------|
D|-5-(x32)-3-------5-(x32)-3---------7---------------------------------------|
A|-3-------3-(x32)-3-------3-(x32)---7--(Let Ring)---------------------------|
E|---------1---------------1---------5---------------------------------------|

Chorus: "I'll never buy 30 Keystone Lights again...."
 
e|---------------------------------------------------------------------------|
B|---------------------------------------------------------------------------|
G|-5-------------------------------------------------------------------------|
D|-5-(x8)-5------7------3----------------------------------------------------|
A|-3------5-(x8)-7-(x8)-3-(x8)-----------------------------------------------|
E|--------3------5------1----------------------------------------------------|

e|---------------------------------------------------------------------------|
B|---------------------------------------------------------------------------|
G|-5-------------------------------------------------------------------------|
D|-5-(x8)-5------3-----------------------------------------------------------|
A|-3------5-(x8)-3-(x16)-----------------------------------------------------|
E|--------3------1-----------------------------------------------------------|

PLAY TWICE.

e|---------------------------------------------------------------------------|
B|---------------------------------------------------------------------------|
G|---------------------------------------------------------------------------|
D|-7-------------------------------------------------------------------------|
A|-7--(Let Ring)-------------------------------------------------------------|
E|-5-------------------------------------------------------------------------|


Outro: "and in the end we'll regret..."

e|---------------------------------------------------------------------------|
B|---------------------------------------------------------------------------|
G|-5-------------------------------------------------------------------------|
D|-5-(x16)-7-------3---------------------------------------------------------|
A|-3-------7-(x16)-3-(x16)---------------------------------------------------|
E|---------5-------1---------------------------------------------------------|

Play Twice. Twice more over solo.

Solo:
 
e|---------------------------------------------------------------------------|
B|-----6-5-----6-5-----6-5-------5h8-5h6-5h8-5h6-5---------------------------|
G|-5-5-----5-5-----5-5-----7/5p0---------------------------------------------|
D|---------------------------------------------------------------------------|
A|---------------------------------------------------------------------------|
E|---------------------------------------------------------------------------|

e|---------------------------------------------------------------------------|
B|-----6-5-----6-5-----6-5-------5h8-5h6-5h8-5h6p5---------------------------|
G|-5-5-----5-5-----5-5-----7/5p0---------------------------------------------|
D|---------------------------------------------------------------------------|
A|---------------------------------------------------------------------------|
E|---------------------------------------------------------------------------|



************************************

| /   slide up
| \   slide down
| h   hammer-on
| p   pull-off
| ~   vibrato
| +   harmonic
| x   Mute note
| b   Bend
| pb  Pre-bend
| br  Bend release
| pbr Pre-bend release
| brb Bend release bend

************************************
Добавлено: 11.06.2015
Вам также может быть интересно:
Другие материалы по этой песне:
  • Аккорды и текст

Страница создана 11.06.2015
http://primanota.ru/the-dopamines/monroe-chords.htm
Привет, Гость.
Предлагаем пройти революционный курс по гитаре.
Подарок от PrimaNota.Ru, забирай!