PrimaNota.ru - самый крупный в мире бесплатный архив песенных текстов, аккордов, табулатур и нот


The Dopamines - Dan Teets Runs A Marathon - таба, видео

Регистрация Запомнить меня
Войти через:  Facebook Google Twitter Vk Yandex Mail.ru

The Dopamines - Dan Teets Runs A Marathon - таба, видео

Печатать
Просмотров: 106
http://thedopamines.net/

Band: The Dopamines
Song: Dan Teets Runs a Marathon
Album: Dopamines
Label: It's Alive Records
 
Ohio punk rock lives!  Rhythm isn't exact here but has been standardized for the 
tab for ease.  I'm so nice.  Corrections or comments at go crew AT g mail dot com.


Intro
E |----------------|----------------|----------------|----------------||
B |----------------|----------------|----------------|----------------||
G |-12-12-12-12-12-|-11-11-11-11-11-|---9--9--9--9--9|--7--7--7--7--7-||
D |--0--0--0--0--0-|--0--0--0--0--0-|---0--0--0--0--0|--0--0--0--0--0-||
A |----------------|----------------|----------------|----------------||
E |----------------|----------------|----------------|----------------||

E |----------------|----------------|----------------|----------------||
B |----------------|----------------|----------------|----------------||
G |-12-12-12-12-12-|-11-11-11-11-11-|---9--9--9--9--9|--7--7--7--7--7-||
D |--0--0--0--0--0-|--0--0--0--0--0-|---0--0--0--0--0|--0--0--0--0--0-||
A |----------------|----------------|----------------|----------------||
E |----------------|----------------|----------------|----------------||

E |----------------||
B |----------------||
G |--7--7--7--7--7-|| 
D |--0--0--0--0--0-|| Play this x4 then ring
A |----------------||
E |----------------||



Verse 1
E |---------------|---------------|---------------|---------------||
B |---------------|---------------|---------------|---------------||
G |-7--7--7--7--7-|-7--7--7--7--7-|-7--7--7--7--7-|-7--7--7--7--7-||
D |-7--7--7--7--7-|-7--7--7--7--7-|-7--7--7--7--7-|-7--7--7--7--7-||
A |-5--5--5--5--5-|-5--5--5--5--5-|-5--5--5--5--5-|-5--5--5--5--5-||
E |---------------|---------------|---------------|---------------||


E |---------------|---------------|---------------|---------------||
B |---------------|---------------|---------------|---------------||
G |---------------|---------------|---------------|---------------||
D |-5--5--5--5--5-|-5--5--5--5--5-|-5--5--5--5--5-|-5--5--5--5--5-||
A |-5--5--5--5--5-|-5--5--5--5--5-|-5--5--5--5--5-|-5--5--5--5--5-||
E |-3--3--3--3--3-|-3--3--3--3--3-|-3--3--3--3--3-|-3--3--3--3--3-||


E |---------------|---------------|---------------|---------------||
B |---------------|---------------|---------------|---------------||
G |-9--9--9--9--9-|-9--9--9--9--9-|-9--9--9--9--9-|-9--9--9--9--9-||
D |-9--9--9--9--9-|-9--9--9--9--9-|-9--9--9--9--9-|-9--9--9--9--9-||
A |-7--7--7--7--7-|-7--7--7--7--7-|-7--7--7--7--7-|-7--7--7--7--7-||
E |---------------|---------------|---------------|---------------||

E |---------------|---------------|---------------|---------------||
B |---------------|---------------|---------------|---------------||
G |-7--7--7--7--7-|-7--7--7--7--7-|-7--7--7--7--7-|-7--7--7--7--7-||
D |-7--7--7--7--7-|-7--7--7--7--7-|-7--7--7--7--7-|-7--7--7--7--7-||
A |-5--5--5--5--5-|-5--5--5--5--5-|-5--5--5--5--5-|-5--5--5--5--5-||
E |---------------|---------------|---------------|---------------||

Chorus

E |---------------|---------------|---------------|---------------||
B |---------------|---------------|---------------|---------------||
G |---------------|-7--7--7--7--7-|---------------|---4-4--7-7----||
D |-5--5--5--5--5-|-7--7--7--7--7-|-7--7--7--7--7-|---4-2--7-7----|| x3
A |-5--5--5--5--5-|-5--5--5--5--5-|-7--7--7--7--7-|---2-2--5-5----||
E |-3--3--3--3--3-|---------------|-5--5--5--5--5-|---------------||

E |---------------|---------------|---------------|---------------||
B |---------------|---------------|---------------|---------------||
G |---------------|-7--7--7--7--7-|---------------|---7~ --77~ ---||
D |-5--5--5--5--5-|-7--7--7--7--7-|-7--7--7--7--7-|---7~ --77~ ---|| 
A |-5--5--5--5--5-|-5--5--5--5--5-|-7--7--7--7--7-|---5~ --55~ ---||
E |-3--3--3--3--3-|---------------|-5--5--5--5--5-|---------------||



Verse 2

E |---------------|---------------|---------------|---------------||
B |---------------|---------------|---------------|---------------||
G |---------------|-7--7--7--7--7-|---------------|---------------||
D |-5--5--5--5--5-|-7--7--7--7--7-|-7--7--7--7--7-|-9--9--9--9--9-|| 
A |-5--5--5--5--5-|-5--5--5--5--5-|-7--7--7--7--7-|-9--9--9--9--9-||
E |-3--3--3--3--3-|---------------|-5--5--5--5--5-|-7--7--7--7--7-||

E |---------------|---------------|---------------|---------------||
B |---------------|---------------|---------------|---------------||
G |---------------|-7--7--7--7--7-|---------------|---------------||
D |-5--5--5--5--5-|-7--7--7--7--7-|-7--7--7--7--7-|-7--7--7--7--7-|| 
A |-5--5--5--5--5-|-5--5--5--5--5-|-7--7--7--7--7-|-7--7--7--7--7-||
E |-3--3--3--3--3-|---------------|-5--5--5--5--5-|-5--5--5--5--5-||


Outro


E |----------------||
B |----------------||
G |-4-5--7-7-------|| 
D |-4-4--7-7--5----|| 
A |-2-2--5-5--3----||
E |-----------3----||
Добавлено: 22.08.2013
Другие материалы по этой песне:
  • Аккорды и текст

Страница создана 22.08.2013
http://primanota.ru/the-dopamines/dan-teets-runs-a-marathon-chords.htm
Привет, Гость.
Предлагаем пройти революционный курс по гитаре.
Подарок от PrimaNota.Ru, забирай!