PrimaNota.ru - самый крупный в мире бесплатный архив песенных текстов, аккордов, табулатур и нот


The Dopamines - Cincinnati Harmony - таба, видео

Регистрация Запомнить меня
Войти через:  Facebook Google Twitter Vk Yandex Mail.ru

The Dopamines - Cincinnati Harmony - таба, видео

Печатать
Просмотров: 137
Уроки эстрадного вокала в Санкт-Петербурге
-------------------------------------------------------------------------------
                             Cincinnati Harmony - The Dopamines
-------------------------------------------------------------------------------
Tabbed by: Jake Itterly

Guitar 1 Tuning: Standard

Guitar 2 Tuning: Standard

Intro Part I: 

:00-:09

Guitar 1: (PALM MUTED)
e|---------------------------------------------------------------------------|
B|---------------------------------------------------------------------------|
G|-9-9-9-9-9-9-9-9-9-11-9-9-11-9-9-11-9-----------9-9-9-9-9-9-9-9-11---------|
D|-0-0-0-0-0-0-0-0-0--0-0-0--0-0-0--0-0--(x3)-----0-0-0-0-0-0-0-0--0---------|
A|---------------------------------------------------------------------------|
E|---------------------------------------------------------------------------|

Guitar 2: (PALM MUTED Comes in on 3rd turn of Guitar 1)
e|---------------------------------------------------------------------------|
B|---------------------------------------------------------------------------|
G|----------------------------7----------------------------------------------|
D|-7-7-7-7-7-7-7-7-7----------7----------------------------------------------|
A|-5-5-5-5-5-5-5-5-5--(x3)----5----------------------------------------------|
E|---------------------------------------------------------------------------|



Intro Part II:

:10-:30

Guitar 1: (OPENS UP)
e|-0-0-0-0-0-0-0-0-0-0-0-0-0-0-0-0-------------------------------------------|
B|-5-5-5-5-5-5-5-5-7-5-5-7-5-5-7-5--(x6)-------------------------------------|
G|---------------------------------------------------------------------------|
D|-----------------------------------------(Then mute)-----------------------|
A|---------------------------------------------------------------------------|
E|---------------------------------------------------------------------------|

Guitar 2: 
e|---------------------------------------------------------------------------|
B|---------------------------------------------------------------------------|
G|-----------------7---------------------------------------------------------|
D|-4-------7-------7-(x32)-------(Play this twice)---------------------------|
A|-4-(x16)-7-(x16)-5---------------------------------------------------------|
E|-2-------5-----------------------------------------------------------------|



Verse 1:

:31-:44 "So proud of your new life, you say I'm a jerk...."

Guitar 2: (In unison with vocals)
e|---------------------------------------------------------------------------|
B|---------------------------------------------------------------------------|
G|-7-------------------------------------------------------------------------|
D|-7-(x16)-7-------4--------7------------------------------------------------|
A|-5-------7-(x16)-4-(x16)--7-(x16)------------------------------------------|
E|---------5-------2--------5------------------------------------------------|

Post-Verse Riff:

Guitar 1: (After "Hooooooooome")
e|-0-0-0-0-0-0-0-0-0-0-0-0-0-0-0-0-------------------------------------------|
B|-5-5-5-5-5-5-5-5-7-5-5-7-5-5-7-5--(x2)-------------------------------------|
G|---------------------------------------------------------------------------|
D|---------------------------------------------------------------------------|
A|---------------------------------------------------------------------------|
E|---------------------------------------------------------------------------|

Guitar 2: (After "Hooooooooome")
e|---------------------------------------------------------------------------|
B|---------------------------------------------------------------------------|
G|---------------------------------------------------------------------------|
D|-4-------7-----------------------------------------------------------------|
A|-4-(x16)-7-(x16)-----------------------------------------------------------|
E|-2-------5-----------------------------------------------------------------|

Chorus:

Both Guitars:
e|---------------------------------------------------------------------------|
B|---------------------------------------------------------------------------|
G|-7---7-7-7-7-7-7-----------------------------------------------------------|
D|-7---7-7-7-7-7-7---5-5/7-7-7-----------------------------------------------|
A|-5---5-5-5-5-5-5---5-5/7-7-7-----(Play Twice)------------------------------|
E|-------------------3-3/5-5-5-----------------------------------------------|

Both Guitars: 
e|---------------------------------------------------------------------------|
B|---------------------------------------------------------------------------|
G|---------------------------------------------------------------------------|
D|-9-------8-----------------------------------------------------------------|
A|-9-(x16)-8-(x16)-----------------------------------------------------------|
E|-7-------6-----------------------------------------------------------------|

REPEAT.

Post-Chorus Build-Up:

Guitar 1: 
e|-2--2--2--2--2--2----5-5-5-5-5-5-------------------------------------------|
B|---------------------------------------------------------------------------|
G|---------------------------------------------------------------------------|
D|---------------------------------------------------------------------------|
A|---------------------------------------------------------------------------|
E|---------------------------------------------------------------------------|

Guitar 2: 
e|---------------------------------------------------------------------------|
B|---------------------------------------------------------------------------|
G|---------------------------------------------------------------------------|
D|-4--4--4--4--4--4----7--7--7--7--7--7--------------------------------------|
A|-4--4--4--4--4--4----7--7--7--7--7--7--------------------------------------|
E|-2--2--2--2--2--2----5--5--5--5--5--5--------------------------------------|


Verse:

Both Guitars:
e|---------------------------------------------------------------------------|
B|---------------------------------------------------------------------------|
G|-7-------------------------------------------------------------------------|
D|-7-(x16)-7-------4--------7------------------------------------------------|
A|-5-------7-(x16)-4-(x16)--7-(x16)----(Play Twice)--------------------------|
E|---------5-------2--------5------------------------------------------------|

Post-Verse Riff:

Guitar 1: (After "Hooooooooome")
e|-0-0-0-0-0-0-0-0-0-0-0-0-0-0-0-0-------------------------------------------|
B|-5-5-5-5-5-5-5-5-7-5-5-7-5-5-7-5--(x2)-------------------------------------|
G|---------------------------------------------------------------------------|
D|---------------------------------------------------------------------------|
A|---------------------------------------------------------------------------|
E|---------------------------------------------------------------------------|

Guitar 2: (After "Hooooooooome")
e|---------------------------------------------------------------------------|
B|---------------------------------------------------------------------------|
G|---------------------------------------------------------------------------|
D|-4-------7-----------------------------------------------------------------|
A|-4-(x16)-7-(x16)-----------------------------------------------------------|
E|-2-------5-----------------------------------------------------------------|

Chorus:

Both Guitars:
e|---------------------------------------------------------------------------|
B|---------------------------------------------------------------------------|
G|-7---7-7-7-7-7-7-----------------------------------------------------------|
D|-7---7-7-7-7-7-7---5-5/7-7-7-----------------------------------------------|
A|-5---5-5-5-5-5-5---5-5/7-7-7-----(Play Twice)------------------------------|
E|-------------------3-3/5-5-5-----------------------------------------------|

Both Guitars: 
e|---------------------------------------------------------------------------|
B|---------------------------------------------------------------------------|
G|---------------------------------------------------------------------------|
D|-9-------8-----------------------------------------------------------------|
A|-9-(x16)-8-(x16)-----------------------------------------------------------|
E|-7-------6-----------------------------------------------------------------|

REPEAT.

Post-Chorus Build-Up / Bridge:

Guitar 1: 
e|---------------------------------------------------------------------------|
B|---------------------------------------------------------------------------|
G|---------------------------------------------------------------------------|
D|-4--4--4--4--4--4/7~ ----4--4--4--4--4--4/2--------------------------------|
A|---------------------------------------------------------------------------|
E|---------------------------------------------------------------------------|

Guitar 2: 

e|---------------------------------------------------------------------------|
B|---------------------------------------------------------------------------|
G|----------------------------------7--7--7--7--7--7/2-----------------------|
D|-4--4--4--4--4--4/7---------------7--7--7--7--7--7/2-----------------------|
A|-4--4--4--4--4--4/7---------------5--5--5--5--5--5/0-----------------------|
E|-2--2--2--2--2--2/5--------------------------------------------------------|

Guitar 2:
e|---------------------------------------------------------------------------|
B|---------------------------------------------------------------------------|
G|-7---7-7-7-7-7-7-----------------------------------------------------------|
D|-7---7-7-7-7-7-7---5-5/7-7-7-----------------------------------------------|
A|-5---5-5-5-5-5-5---5-5/7-7-7-----------------------------------------------|
E|-------------------3-3/5-5-5-----------------------------------------------|

Guitar 2: 
e|---------------------------------------------------------------------------|
B|---------------------------------------------------------------------------|
G|---------------------------------------------------------------------------|
D|-9-------8-----------------------------------------------------------------|
A|-9-(x16)-8-(x16)-----------------------------------------------------------|
E|-7-------6-----------------------------------------------------------------|



Chorus:

Both Guitars:
e|---------------------------------------------------------------------------|
B|---------------------------------------------------------------------------|
G|-7---7-7-7-7-7-7-----------------------------------------------------------|
D|-7---7-7-7-7-7-7---5-5/7-7-7-----------------------------------------------|
A|-5---5-5-5-5-5-5---5-5/7-7-7-----(Play Twice)------------------------------|
E|-------------------3-3/5-5-5-----------------------------------------------|

Both Guitars: 
e|---------------------------------------------------------------------------|
B|---------------------------------------------------------------------------|
G|---------------------------------------------------------------------------|
D|-9-------8-----------------------------------------------------------------|
A|-9-(x16)-8-(x16)-----------------------------------------------------------|
E|-7-------6-----------------------------------------------------------------|

Ending note:

Both Guitars: 
e|---------------------------------------------------------------------------|
B|---------------------------------------------------------------------------|
G|---------------------------------------------------------------------------|
D|-4-------------------------------------------------------------------------|
A|-4---------(Let Ring)------------------------------------------------------|
E|-2-------------------------------------------------------------------------|

"Hey man, I got this acid but I can't take it."

"I'll take it"


************************************

| /   slide up
| \   slide down
| h   hammer-on
| p   pull-off
| ~   vibrato
| +   harmonic
| x   Mute note
| b   Bend
| pb  Pre-bend
| br  Bend release
| pbr Pre-bend release
| brb Bend release bend

************************************
Добавлено: 10.04.2015
Другие материалы по этой песне:
  • Аккорды и текст

Страница создана 10.04.2015
http://primanota.ru/the-dopamines/cincinnati-harmony-chords.htm
Привет, Гость.
Предлагаем пройти революционный курс по гитаре.
Подарок от PrimaNota.Ru, забирай!