PrimaNota.ru - самый крупный в мире бесплатный архив песенных текстов, аккордов, табулатур и нот


The Donkeys - Nice Train - таба, видео

Регистрация Запомнить меня
Войти через:  Facebook Google Twitter Vk Yandex Mail.ru

The Donkeys - Nice Train - таба, видео

Печатать
Просмотров: 78
-------------------------------------------------------------------------------
                             The Donkeys - Nice Train
-------------------------------------------------------------------------------
Tabbed by: Slevadon
E-mail: kmminnick@gmail.com

Tuning: Standard

Lyrics below

e|-+12-----------------------------------------------------------------------------------0--3--0-|
B|-+12---------0--3----3--3--1--0---------------------------0--3--5-5-5-5-5--3--0--0h3-----------|
G|-+12----0--2--------------------0-----0----0--------0--2---------------------------------------|
D|-+12----------------------------0--/2----2-----------------------------------------------------|
A|-----------------------------------------------------------------------------------------------|
E|-----------------------------------------------------------------------------------------------|


Verse

        (  G       Em  )  9x              (  C       Em  )  2x       D

e|---------7--------7------------------------3--------7---------------14--------|
B|---------8--------8------------------------5--------8---------------15--------|
G|---------7--------9------------------------5--------9------------ --14--------|
D|---------9--------9------------------------5--------9---------------0---------|
A|---------10-------7------------------------3-------7--------------------------|
E|------------------------------------------------------------------------------|

Solo (2:46)

e|-----------------------------------------------------------------------------|
B|-----------------------------------------------------------------------------|
G|-----------------------------------------------------------------------------|
D|-----------------------------------------------------------------------------|
A|-----------------------------------------------------------------------------|
E|--10--10--8--8--7--7--5--7--5--3--0--0--5/7--5/7--0--0--5--3--0--3-----------|

e|----------------------------------------------------------------------7-------|
B|---8-------------8----8--10--8--10b11--b11--b11--10--8-----8--8h10------------|
G|------9--7--7h9----7-------------------------------------9--------------------|
D|------------------------------------------------------------------------------|
A|------------------------------------------------------------------------------|
E|------------------------------------------------------------------------------|

e|--------7--10--10--10p7-----7------------------------------10--12--15--18b19--------|
B|--8h10-------------------10----10--10--10p8----8--10--/12---------------------------|
G|---------------------------------------------9--------------------------------------|
D|------------------------------------------------------------------------------------|
A|------------------------------------------------------------------------------------|
E|------------------------------------------------------------------------------------|

e|--17--15---------15--17--18b19--17--15------------15---------15---------15----------|
B|----------15h17-------------------------17--15h17------15h17-----15h17--------------|
G|------------------------------------------------------------------------------------|
D|------------------------------------------------------------------------------------|
A|------------------------------------------------------------------------------------|
E|------------------------------------------------------------------------------------|

e|---------15--------------------------------------------------------------------------|
B|--15h17-----17--15--12---------------------------------------------------------------|
G|------------------------14--12--14--14b15--b15--15br14--12-----b15--b15-15br14-------|
D|-------------------------------------------------------------14----------------------|
A|-------------------------------------------------------------------------------------|
E|-------------------------------------------------------------------------------------|

e|------------------------------------------------------------------------------------|
B|------------------------------------------------------------------------------------|
G|--12-------------12h14--------------------------------------------------------------|
D|------14--12h14---------------------------------------------------------------------|
A|------------------------------------------------------------------------------------|
E|------------------------------------------------------------------------------------|


You've got a nice train
Now are you gonna start it
I'm at the station waiting
With all the broken hearted
And I stayed up late, I need a cup of coffee
At someone's art show, at somebody else's gallery

That didn't want to see,
but it wasn't up to me

Were drinking night train, now when we gonna stop it
I'm at some hipster bar, we got two gay guys fawning
Someone yells last call, and so we should be leaving
Sam shoved his cell phone down the, pool table they're retrieving now

And no one's quite sure exactly how,
they scratch their hair and they say wow
And alex may just have a cow, he scratched his hair and he says

wow I'm laying on my bed still with the sun spots at my knees,
I'm so discouraged that I don't got the courage to just open that door and leave

You got some back pain, hey man this will relieve it
Two of those and two beers, a movie better believe it
And now your swimming throughout the hotel lobby,
Stuck in a future groove, trying to keep it poppy

Why,
we all just need a little time,
for magazines and drinking wine,
And not to worry about our time,
wasted chatting about

Im fine thank you and how have you been, has it really been that long
I'm so discouraged that I don't got the courage to just get up and be gone,
Gone, gone, gone.

************************************


| /   slide up
| \   slide down
| h   hammer-on
| p   pull-off
| ~   vibrato
| +   harmonic
| x   Mute note
| b   Bend
| pb  Pre-bend
| br  Bend release
| pbr Pre-bend release
| brb Bend release bend
| (V)           (V)
|  \ |  (;,,,;) | /  zoidberg
************************************
Добавлено: 02.08.2013
Другие материалы по этой песне:
  • Аккорды и текст

Страница создана 02.08.2013
http://primanota.ru/the-donkeys/nice-train-chords.htm
Привет, Гость.
Предлагаем пройти революционный курс по гитаре.
Подарок от PrimaNota.Ru, забирай!