PrimaNota.ru - самый крупный в мире бесплатный архив песенных текстов, аккордов, табулатур и нот


The Dollyrots - Twist Me To The Left - бас-таба, видео

Регистрация Запомнить меня
Войти через:  Facebook Google Twitter Vk Yandex Mail.ru

The Dollyrots - Twist Me To The Left - бас-таба, видео

Печатать
Просмотров: 104
Artist: The Dollyrots
Song: Twist Me To The Left
Album: The Dollyrots (2012)
Bassist: Kelly Ogden
this tab is 100% correct! its from the dollyrots official instagram!! :) xox
Tuning: Standard EADG

Intro/Verse/Pre-Chorus

G|--------------------------------|
D|---------5-3-2-0------2---4-----|
A|--------------------3---5-------|
E|--3-3---------------------------|

G|-----------------------------|--------|
D|---------5-3-2-0------2------|--------|
A|--------------------3----3--2|--2-3-5-|
E|--3-3------------------------|--------|


Chorus

G|-----------------------------|
D|-----------------------------| X 3 
A|---------2222---33---55------|
E|--3 (3)----------------------|


G|-----------------------------|
D|-----------------------------| X 1
A|---------2222---33-----------|
E|--3 (3)--------------3-------|




| /  slide up
| \  slide down
| h  hammer-on
| p  pull-off
| ~  vibrato
| +  harmonic
| x  Mute note
Добавлено: 19.01.2014
Другие материалы по этой песне:
  • Аккорды и текст

Страница создана 19.01.2014
http://primanota.ru/the-dollyrots/twist-me-to-the-left-chords.htm
Привет, Гость.
Предлагаем пройти революционный курс по гитаре.
Подарок от PrimaNota.Ru, забирай!