PrimaNota.ru - самый крупный в мире бесплатный архив песенных текстов, аккордов, табулатур и нот


The Dogs - Slash Your Face - таба, видео

Регистрация Запомнить меня
Войти через:  Facebook Google Twitter Vk Yandex Mail.ru

The Dogs - Slash Your Face - таба, видео

Печатать
Просмотров: 103
Song: "Slash Your Face"
Artist: The Dogs
Tabbed by Gavin (venus_in_furs@postmaster.co.uk)
This is all my own work.

/     Slide up
\     Slide down
~     Tremelo
h     Hammer on
p     Pull off
b     Bend


Intro

e---------------------|
B---------------------|
G---------------------|  X 4
D---------------------|
A---------------------|
E---7-6-5-0-3-4-5-0---|


e-----------------------------------|
B-----------------------------------|
G---------------------7-6-5---------|
D---------------7-6-5-------7-6-5---|
A---------7-6-5---------------------|
E---7-6-5---------------------------|


e--------------------------------------------|
B--------------------------------------------|
G---9----10----7----9----9----10----7----9---|
D---9----10----7----9----9----10----7----9---|
A---7-----8----5----7----7-----8----5----7---|
E--------------------------------------------|


e---------------------------|
B---------------------------|
G-----------------------7---|
D---9----10----9----10--7---|
A---9----10----9----10--5---|
E---7-----8----7-----8------|


e--------------------------------------------|
B--------------------------------------------|
G---9----10----7----9----9----10----7----9---|
D---9----10----7----9----9----10----7----9---|
A---7-----8----5----7----7-----8----5----7---|
E--------------------------------------------|


e------------------------|
B------------------------|
G--------------------7---|
D---9--10--9--9--10--7---|
A---9--10--9--9--10--5---|
E---7---8--7--7---8------|


e----------------------------------|
B----------------------------------|
G---9-9-9--10-7-9--9-9-9--10-7-9---|  X 2
D---9-9-9--10-7-9--9-9-9--10-7-9---|
A---7-7-7---8-5-7--7-7-7---8-5-7---|
E----------------------------------|


Verse

e----------------------------------|
B----------------------------------|
G---9-9-9--10-7-9--9-9-9--10-7-9---|
D---9-9-9--10-7-9--9-9-9--10-7-9---|
A---7-7-7---8-5-7--7-7-7---8-5-7---|
E----------------------------------|
  "Slash your face....."


e------------------------|
B------------------------|
G--------------------7---|
D---9--10--9--9--10--7---|
A---9--10--9--9--10--5---|
E---7---8--7--7---8------|


e----------------------------------|
B----------------------------------|
G---9-9-9--10-7-9--9-9-9--10-7-9---|  X 4
D---9-9-9--10-7-9--9-9-9--10-7-9---|
A---7-7-7---8-5-7--7-7-7---8-5-7---|
E----------------------------------|
  "Strong...."


e------------------------|
B------------------------|
G--------------------7---|
D---9--10--9--9--10--7---|
A---9--10--9--9--10--5---|
E---7---8--7--7---8------|
  "Slash your face...."


e----------------------------------|
B----------------------------------|
G---9-9-9--10-7-9--9-9-9--10-7-9---|  X 4
D---9-9-9--10-7-9--9-9-9--10-7-9---|
A---7-7-7---8-5-7--7-7-7---8-5-7---|
E----------------------------------|
  "Slash...." x4
  "You, better lock...."
  "Cos we, can't take it...."


e------------------------|
B------------------------|
G--------------------7---|
D---9--10--9--9--10--7---|
A---9--10--9--9--10--5---|
E---7---8--7--7---8------|
  "Slash your face...."


e----------------------------------|
B----------------------------------|
G---9-9-9--10-7-9--9-9-9--10-7-9---|  X 2
D---9-9-9--10-7-9--9-9-9--10-7-9---|
A---7-7-7---8-5-7--7-7-7---8-5-7---|
E----------------------------------|
  "Slash....."
  "I wanna....."


Solo

e---------------------------------------------------------|
B---------------------------------------------------------|
G---------------------------------------------------------|
D---------------------------------------------------------|
A---8--7-8--7-8-7\5-7-5--7-5\3-5-3-5--3-5-3--2-2-2--2-2---|
E---------------------------------------------------------|


e---------------------------------------------------------------|
B---------------------------------------------------------------|
G---------------------------------------------------------------|
D---------------------------------------------19-19-19-19-19-19-|
A---7--9--10--10--12--12--14--15--17-17-17-17-19-19-19-19-19-19-|
E---------------------------------------------------------------|


e-----------------------------------------------------------|
B-----------------------------------------------------------|
G-----------------------------------------------------------|
D---19-19-19-19-19-19-19-19-19-19-19-19-19-19-19-19-19-19-\-|
A---19-19-19-19-19-19-19-19-19-19-19-19-19-19-19-19-19-19-\-|
E-----------------------------------------------------------|


e-----------------------------------------------------------|
B--------------------------12b--12b--12b--12b\-----5---5/6--|
G--------------------------12b--12b--12b--12b\---4----------|
D----------------------------------------------2------------|
A---7p6h7p6h7p6h7p6h7p6h7/----------------------------------|
E-----------------------------------------------------------|


e--------------------------------------------------------|
B---12-10-7-7b---7b-7b--------------5-----6b--6b--6b-6b--|
G-----------9b---9b-9b--------5~~-4---4-5----------------|
D-----------------------2-3-2----------------------------|
A--------------------------------------------------------|
E--------------------------------------------------------|


e---------------17b-17b-17b--17b-17b--------------------------|
B---------------17b-17b-17b--17b-17b-------------12b-10-------|
G-------------------------------------------------------12-9--|
D---2-2-2--2-2/----------------------2-2-2--2-2/--------------|
A-------------------------------------------------------------|
E-------------------------------------------------------------|


e---------------------------------------------------------------|
B-----------------------8b-8b-8b--8b-8b-8b/12b12b12b/17b17b17b\-|
G---7h8h9---------------7b-7b-7b--7b-7b-7b----------------------|
D--------9--2-2-2--2-2/-----------------------------------------|
A---------------------------------------------------------------|
E---------------------------------------------------------------|


e--------------------------------------------------------|
B--------------------------------------------------------|
G----------------9-9-9-9-9-9-----------------------------|
D---8-8-8-8-8-8--9-9-9-9-9-9--8-8-8-8-8-8--3-3-3-3-3-3---|
A---8-8-8-8-8-8--7-7-7-7-7-7--8-8-8-8-8-8--3-3-3-3-3-3---|
E---6-6-6-6-6-6---------------6-6-6-6-6-6--1-1-1-1-1-1---|


e--------------------------------------------------------|
B--------------------------------------------------------|
G--------------------------------------------------------|
D---8-8-8-8-8-8--3-3-3-3-3-3--5-5-5-5-5-5--7--8--9--10---|
A---8-8-8-8-8-8--3-3-3-3-3-3--5-5-5-5-5-5--7--8--9--10---|
E---6-6-6-6-6-6--1-1-1-1-1-1--3-3-3-3-3-3--5--6--7---8---|


e----------------------------------|
B----------------------------------|
G---9-9-9--10-7-9--9-9-9--10-7-9---|  X 2
D---9-9-9--10-7-9--9-9-9--10-7-9---|
A---7-7-7---8-5-7--7-7-7---8-5-7---|
E----------------------------------|


Verse

e----------------------------------|
B----------------------------------|
G---9-9-9--10-7-9--9-9-9--10-7-9---|  x 2
D---9-9-9--10-7-9--9-9-9--10-7-9---|
A---7-7-7---8-5-7--7-7-7---8-5-7---|
E----------------------------------|
  "You, better lock...."
  "We, can't take it..."


e------------------------|
B------------------------|
G--------------------7---|
D---9--10--9--9--10--7---|
A---9--10--9--9--10--5---|
E---7---8--7--7---8------|
  "Slash your face...."


e----------------------------------|
B----------------------------------|
G---9-9-9--10-7-9--9-9-9--10-7-9---|
D---9-9-9--10-7-9--9-9-9--10-7-9---|
A---7-7-7---8-5-7--7-7-7---8-5-7---|
E----------------------------------|
  "Slash..."


e------------------------|
B------------------------|
G--------------------7---|
D---9--10--9--9--10--7---|
A---9--10--9--9--10--5---|
E---7---8--7--7---8------|


e---------------------|
B---------------------|
G---------------------|  X 4
D---------------------|
A---------------------|
E---7-6-5-0-3-4-5-0---|


e----------------------------------|
B----------------------------------|
G---9-9-9--10-7-9--9-9-9--10-7-9---|  X 6
D---9-9-9--10-7-9--9-9-9--10-7-9---|
A---7-7-7---8-5-7--7-7-7---8-5-7---|
E----------------------------------|
  "I wanna..."
  "Gonna..."
  "Gotta..."


e------------------------|
B------------------------|
G--------------------7---|
D---9--10--9--9--10--7---|
A---9--10--9--9--10--5---|
E---7---8--7--7---8------|


e---------------------|
B---------------------|
G---------------------|  X 4
D---------------------|
A---------------------|
E---7-6-5-0-3-4-5-0---|


e-----------------------------------|
B-----------------------------------|
G---------------------7-6-5---------|
D---------------7-6-5-------7-6-5---|
A---------7-6-5---------------------|
E---7-6-5---------------------------|


e---------------------|
B---------------------|
G---------------------|  X 4
D---------------------|
A---7-6-5-0-3-4-5-0---|
E---7-6-5-0-3-4-5-0---|


Phew! Feel free to add comments, improvements etc. Thank you and goodnight.


___________________________________________________ 
     
Добавлено: 31.07.2013
Другие материалы по этой песне:
  • Аккорды и текст

Страница создана 31.07.2013
http://primanota.ru/the-dogs/slash-your-face-chords.htm
Привет, Гость.
Предлагаем пройти революционный курс по гитаре.
Подарок от PrimaNota.Ru, забирай!