PrimaNota.ru - самый крупный в мире бесплатный архив песенных текстов, аккордов, табулатур и нот


The Dodos - Neighbors - таба, видео

Регистрация Запомнить меня
Войти через:  Facebook Google Twitter Vk Yandex Mail.ru

The Dodos - Neighbors - таба, видео

Печатать
Просмотров: 95
	Rubys out there on the block
e|---------------------------------------|
B|---------------------------------------|
G|---4---------------4-------------------|
D|------0-0-----0-0-----0-0-----0-0------|
A|---------------------------------------|
E|---3-3-3-3-3-3-3-3-3-3-3-3-3-3-3-3-----|

	Cause hes sick of feeling stuck
e|---------------------------------------|
B|---------------------------------------|
G|--11-----------------------------------|
D|-------0--0------0--0----------------|
A|---------------------------------------|
E|--10-10-10-10-10-10-10-10--------------|

	Gone… hes getting free hes going long
e|---------------------------------------|
B|---------------------------------------|
G|---4---------------4-------------------|
D|------0-0-----0-0-----0-0-----0-0------|
A|---------------------------------------|
E|---3-3-3-3-3-3-3-3-3-3-3-3-3-3-3-3-----|


	I hope he does
e|-------------------------------------------------------|
B|-------------------------------------------------------|
G|---8--9----7--4----------------------------------------|
D|-------------------------------------------------------|
A|-------------------------------------------------------|
E|---7--8----6--3----------------------------------------|


	I know them they know me
e|------------------------------------------------------|
B|------------------------------------------------------|
G|-----4--2--0----0------0------------------------------|
D|--------------0h2-2---------0-------------------------| x4
A|--------------------------2---------------------------|
E|-0-3-3-3-3-3-3-3-3-3-3-3-3-3-3-3-3-3-3----------------|


e|---------------------------------------|
B|---------------------------------------|
G|---4---------------4-------------------|
D|------0-0-----0-0-----0-0-----0-0------|
A|---------------------------------------|
E|---3-3-3-3-3-3-3-3-3-3-3-3-3-3-3-3-----|


Those are the pieces figure out the rest just put the pieces together. This is my first 
Hope it works for you!

- Jake Miller
Добавлено: 01.04.2012
Другие материалы по этой песне:
  • Аккорды и текст

Страница создана 01.04.2012
http://primanota.ru/the-dodos/neighbors-chords.htm
Привет, Гость.
Предлагаем пройти революционный курс по гитаре.
Подарок от PrimaNota.Ru, забирай!