PrimaNota.ru - самый крупный в мире бесплатный архив песенных текстов, аккордов, табулатур и нот


The Do Me Rights - Swallow - таба, видео

Регистрация Запомнить меня
Войти через:  Facebook Google Twitter Vk Yandex Mail.ru

The Do Me Rights - Swallow - таба, видео

Печатать
Просмотров: 97
.:The Do Me Rights - Swallow:.

Tabbed by: Emil Johansson (emil.johansson@glocalnet.net)

Finally done! Allright this is my first tab, so don't be too hard on me,
but I've played it with the actual song and it fits in well. If you have
any suggestions or anything like that, feel free to e-mail me.
Oh yeah, if you want to listen to the song, go to 
http://www.spikedhumor.com/articles/343/College_Life.html
because that's the only place I've found it. Have fun playing this kick-ass song.


[Intro]:

   c              Am7/B            Am7            Am7

E|-----------------------------------------------------------------|
B|-------1---------------1---------------1---------------1---------|
G|---------0---------------0---------------0---------------0-------|
D|---2-------2---2---2-------2---2---2-------2---2---2--------2---2|
A|-3---3-------3---2---2-------2---0---0-------0---0---0--------0--|
E|-----------------------------------------------------------------|

   F             F                 G                 G

E|---------------------------------------------------3-----|
B|-------1---------------1----------------3----------3-----|
G|---------2---------------2----------------4--------4-----|
D|---3-------3---3---3-------3---3---5--------5---5--5-----|
A|---------------------------------------------------5-----|
E|-1---1-------1---1---1-------1---3----3-------3----3-----|


[Verse 1]:
(same picking sequence but the last two G's are strummed)

C             Am7/B         Am7            Am7

Your eyes are so beautiful, (your eyes are so beautiful)

F              F             G              G

But not as beautiful as when my load is dripping of your face


C             Am7/B         Am7            Am7

I have driven home alone, (I have driven home alonE)

F              F             G             G

But this will be the last time I drive alone


[Chorus]:
(only strumming)

C              F             G             G

Just swallow, (Swallow)

C              F             G             G

My load and I'll be happy, (I will be happy)

C              F             G             G

Just swallow

C              F             G             G

My load and I'll be happy

(Play intro once)


[Verse 2]:
(same as verse 1)

I don't wanna hear about the taste, (I don't wanna hear about the taste)
If I hear one more word your gonna taste the back of my hand
I don't care if it tastes like salty butter
... I don't have to taste it


[Chorus]


[Bridge]:

A[Bar]        G             F             F

I don't wanna hear you tell me no

A[Bar]        G             F             F

Or you'll be floating down the river, with the other 15 girls

A[Bar]        G             F             F

If I wanted your lip

A[Bar]        G             F             F

I'd jiggle my zipper

G

My zipper


[Chorus]

[Outro]

C

I will be happy.....


Добавлено: 11.07.2012
Другие материалы по этой песне:
  • Аккорды и текст

Страница создана 07.05.2012
http://primanota.ru/the-do-me-rights/swallow-chords.htm
Привет, Гость.
Предлагаем пройти революционный курс по гитаре.
Подарок от PrimaNota.Ru, забирай!