PrimaNota.ru - самый крупный в мире бесплатный архив песенных текстов, аккордов, табулатур и нот


The Dirt Radicals - Pack Your Bags - таба, видео

Регистрация Запомнить меня
Войти через:  Facebook Google Twitter Vk Yandex Mail.ru

The Dirt Radicals - Pack Your Bags - таба, видео

Печатать
Просмотров: 76
*The song is originally played half-a-step down, but i have transcribed it to standard. 
Band website:http://www.myspace.com/thedirtradicals
                       http://thedirtradicals.tumblr.com/
Intro (Guitar 1)
E-----------------------|
B-------7---4-----------|
G 4-6-4---6---6-4-4-6-4-|
D-----------------------| (x4)
A-----------------------|
E-----------------------|
 (Guitar 2)
E------------------------|
B------------------------|
G-4-----------------2----| (Each played 16 times, up and down strokes)
D-4-----4-----6-----2----|
A-2-----4-----6-----0----|
E-------2-----4----------|

Verse
E------------------------|
B------------------------|
G-4----------------------| (x2, Figure out Palm mutes and strums yourself)
D-4-----4-----6-----2--4-|
A-2-----4-----6-----2--4-|
E-------2-----4-----0--2-|

Pre-Chorus
E---------------------------------|
B---------------------------------|
G---------------------------------|
D-6~---8~-------------------------|  (x2)
A-6~---8~-------------------------|(Let the chords ring)
E-4~---6~-------------------------|

Chorus
E-------------------------------|
B-------------------------------|
G-4-----------------2-----------| (x2, Figure out strums yourself)
D-4--4--5--6--2--6--2-----------|
A-2--4--6--6--2--6--0-----------|
E----2--3--4--0--4--------------|

Solo (Guitar 1)
E---------------------------------------|
B---------------------------------------|
G-4/6/8/4--11/6/4/3--4/6/8/4--9/8/3/4/6-|
D---------------------------------------| (Strum a few times then slide)
A-2/4/6/2---9/4/2/1--2/4/6/2--7/6/1/2/4-|
E---------------------------------------|

(Guitar 2)
E-----------------------------|
B-----------------------------|
G-4---------------------------|
D-4----4----6----2--4---------| (Figure strumming pattern yourself)
A-2----4----6----2--4---------|
E------2----4----0--2---------|

(Guitar 1)
E-------------------/7-9-7-6-6h7p6---------------------|
B--------7----4----------------------7-----------------|
G--4-6-4----6---6-4-------------------6-4-3-4-3--------|
D------------------------------------------------4----4|
A--------------------------------------------------4~--|
E------------------------------------------------------|

(Guitar 2)
E--------------------------|
B--------------------------|
G-4------------------------|
D-4----4----6----2--4------|
A-2----4----6----2--4------|
E------2----4----0--2------|

(Guitar 1)
E----------------------------|
B----------------------------|
G-4/6/8/4/11-----------------|
D----------------------------|
A-2/4/6/2/9------------------|
E----------------------------|

(Guitar 2)
E--------------------------|
B--------------------------|
G-4------------------------|
D-4----4----6----2--4------|
A-2----4----6----2--4------|
E------2----4----0--2------|

(Guitar 1)
E--------------------------------|
B--------12----12/14-12/16/14/12-|
G-8-9-11----11-------------------|
D--------------------------------|
A--------------------------------|
E--------------------------------|

(Guitar 2)
E--------------------------|
B--------------------------|
G-4------------------------|
D-4----4----6----2--4------|
A-2----4----6----2--4------|
E------2----4----0--2------|

Bridge
E---------------------------------------|
B---------------------------------------|
G----------4444-----------------4/6/8/4-|
D-7777--2~-4444--4~---7777--2~----------|
A-7777--2~-2222--4~---7777--2~--2/4/6/2-|
E-5555--0~-------2~---5555--0~----------|

E----------------------------------------|
B----------------------------------------|
G----------4444--------------------------|
D-7777--2~-4444--4~---7777--2~--44444444-|
A-7777--2~-2222--4~---7777--2~--44444444-|
E-5555--0~-------2~---5555--0~--22222222-|

Song Sequence:
Intro
Verse
Chorus
Intro
Verse
Chorus
Solo
Bridge
Chorus
Intro

And that's it. My first tab, and I'm 14 so be easy on me.
It's by ear so give me some feedback if its wrong or whatever.
Listen to the song to get the strumming pattern and palm muting etc.
Oh and the solo sounds 85% right, but I know some parts are wrong.
I'm going to put a cover on youtube soon so look out for it!
Thanks and Enjoy a great song by a great "Singaporean" band. FTW
Добавлено: 04.05.2012
Другие материалы по этой песне:
  • Аккорды и текст

Страница создана 04.05.2012
http://primanota.ru/the-dirt-radicals/pack-your-bags-chords.htm
Привет, Гость.
Предлагаем пройти революционный курс по гитаре.
Подарок от PrimaNota.Ru, забирай!