PrimaNota.ru - самый крупный в мире бесплатный архив песенных текстов, аккордов, табулатур и нот


The Dicks - Hate The Police - таба, видео

Регистрация Запомнить меня
Войти через:  Facebook Google Twitter Vk Yandex Mail.ru

The Dicks - Hate The Police - таба, видео

Печатать
Просмотров: 97
-------------------------------------------------------------------------------
                             Hate The Police  - The Dicks
-------------------------------------------------------------------------------
Tabbed by: Angel Tapia
E-mail: atapia@hightechhigh.org

Tuning: Standard

I wanted to learn this song, and realized there was no tab! I learned it by ear so here's the tab for you all.
Let me know if anything needs fixing (-:

Intro:
e|---------------------------------------------------------------------------|
B|---------------------------------------------------------------------------|
G|-7-------------------------------------------------------------------------|
D|-7-x16---------------------------------------------------------------------|
A|-5-------------------------------------------------------------------------|
E|---------------------------------------------------------------------------|

  Mommy Mommy Mommy          look at your son
e|---------------------------------------------------------------------------|
B|---------------------------------------------------------------------------|
G|-7--7--7--7--7--7--3--3-----------------5--5--5--5--5----------------------|
D|-7--7--7--7--7--7--3--3--3--3--3--3--3--5--5--5--5--5----------------------|
A|-5--5--5--5--5--5--1--1--3--3--3--3--3--3--3--3--3--3----------------------|
E|-------------------------1--1--1--1--1-------------------------------------|

You might have loved me      but now i got a gun
e|---------------------------------------------------------------------------|
B|---------------------------------------------------------------------------|
G|-7--7--7--7--7--7--3--3-----------------5--5--5--5--5----------------------|
D|-7--7--7--7--7--7--3--3--3--3--3--3--3--5--5--5--5--5----------------------|
A|-5--5--5--5--5--5--1--1--3--3--3--3--3--3--3--3--3--3----------------------|
E|-------------------------1--1--1--1--1-------------------------------------|

      You better stay out of the way
e|---------------------------------------------------------------------------|
B|---------------------------------------------------------------------------|
G|-3--3--3--3--5--5--5--5--7--7--7--7--7--7--7--7----------------------------|
D|-3--3--3--3--3--5--5--5--7--7--7--7--7--7--7--7----------------------------|
A|-1--1--1--1--3--3--3--3--5--5--5--5--5--5--5--5----------------------------|
E|---------------------------------------------------------------------------|

   I think I've had         a bad day
e|---------------------------------------------------------------------------|
B|---------------------------------------------------------------------------|
G|-3--3--3--3--5--5--5--5--7--7--7--7----------------------------------------|
D|-3--3--3--3--3--5--5--5--7--7--7--7----------------------------------------|
A|-1--1--1--1--3--3--3--3--5--5--5--5----------------------------------------|
E|---------------------------------------------------------------------------|
         Had a bad day
e|---------------------------------------------------------------------------|
B|---------------------------------------------------------------------------|
G|-3--3--3--3--7--7--7--7----------------------------------------------------|
D|-3--3--3--3--7--7--7--7----------------------------------------------------|
A|-1--1--1--1--5--5--5--5----------------------------------------------------|
E|---------------------------------------------------------------------------|
      I've had a bad day
e|---------------------------------------------------------------------------|
B|---------------------------------------------------------------------------|
G|-3--3--3--3--7--7--7--7--3--3--3--3----------------------------------------|
D|-3--3--3--3--7--7--7--7--3--3--3--3----------------------------------------|
A|-1--1--1--1--5--5--5--5--1--1--1--1----------------------------------------|
E|---------------------------------------------------------------------------|

  Daddy Daddy Daddy           Proud of your son
e|---------------------------------------------------------------------------|
B|---------------------------------------------------------------------------|
G|-7--7--7--7--7--7--3--3-----------------5--5--5--5--5----------------------|
D|-7--7--7--7--7--7--3--3--3--3--3--3--3--5--5--5--5--5----------------------|
A|-5--5--5--5--5--5--1--1--3--3--3--3--3--3--3--3--3--3----------------------|
E|-------------------------1--1--1--1--1-------------------------------------|

 He got him a good job       Killing naggers and mexicans
e|---------------------------------------------------------------------------|
B|---------------------------------------------------------------------------|
G|-7--7--7--7--7--7--3--3-----------------5--5--5--5--5----------------------|
D|-7--7--7--7--7--7--3--3--3--3--3--3--3--5--5--5--5--5----------------------|
A|-5--5--5--5--5--5--1--1--3--3--3--3--3--3--3--3--3--3----------------------|
E|-------------------------1--1--1--1--1-------------------------------------|

   I'll tell you something, and it's true
e|---------------------------------------------------------------------------|
B|---------------------------------------------------------------------------|
G|-3--3--3--3--5--5--5--5--7--7--7--7--7--7--7--7----------------------------|
D|-3--3--3--3--3--5--5--5--7--7--7--7--7--7--7--7----------------------------|
A|-1--1--1--1--3--3--3--3--5--5--5--5--5--5--5--5----------------------------|
E|---------------------------------------------------------------------------|

  You can't find justice, it'll find you
e|---------------------------------------------------------------------------|
B|---------------------------------------------------------------------------|
G|-3--3--3--3--5--5--5--5--7--7--7--7----------------------------------------|
D|-3--3--3--3--3--5--5--5--7--7--7--7----------------------------------------|
A|-1--1--1--1--3--3--3--3--5--5--5--5----------------------------------------|
E|---------------------------------------------------------------------------|

       Yeah it'll find you
e|---------------------------------------------------------------------------|
B|---------------------------------------------------------------------------|
G|-3--3--3--3--7--7--7--7----------------------------------------------------|
D|-3--3--3--3--7--7--7--7----------------------------------------------------|
A|-1--1--1--1--5--5--5--5----------------------------------------------------|
E|---------------------------------------------------------------------------|
    
       Yeah it'll find you
e|---------------------------------------------------------------------------|
B|---------------------------------------------------------------------------|
G|-3--3--3--3--7--7--7--7--3--3--3--3----------------------------------------|
D|-3--3--3--3--7--7--7--7--3--3--3--3----------------------------------------|
A|-1--1--1--1--5--5--5--5--1--1--1--1----------------------------------------|
E|---------------------------------------------------------------------------|
    

  People tell policemen          They've me their match
e|---------------------------------------------------------------------------|
B|---------------------------------------------------------------------------|
G|-7--7--7--7--7--7--3--3-----------------5--5--5--5--5----------------------|
D|-7--7--7--7--7--7--3--3--3--3--3--3--3--5--5--5--5--5----------------------|
A|-5--5--5--5--5--5--1--1--3--3--3--3--3--3--3--3--3--3----------------------|
E|-------------------------1--1--1--1--1-------------------------------------|

They planted on desert sands   The dicks were hatched
e|---------------------------------------------------------------------------|
B|---------------------------------------------------------------------------|
G|-7--7--7--7--7--7--3--3-----------------5--5--5--5--5----------------------|
D|-7--7--7--7--7--7--3--3--3--3--3--3--3--5--5--5--5--5----------------------|
A|-5--5--5--5--5--5--1--1--3--3--3--3--3--3--3--3--3--3----------------------|
E|-------------------------1--1--1--1--1-------------------------------------|

   Dicks hate policemen, and it's true
e|---------------------------------------------------------------------------|
B|---------------------------------------------------------------------------|
G|-3--3--3--3--5--5--5--5--7--7--7--7--7--7--7--7----------------------------|
D|-3--3--3--3--3--5--5--5--7--7--7--7--7--7--7--7----------------------------|
A|-1--1--1--1--3--3--3--3--5--5--5--5--5--5--5--5----------------------------|
E|---------------------------------------------------------------------------|

  You can't find justice, it'll find you
e|---------------------------------------------------------------------------|
B|---------------------------------------------------------------------------|
G|-3--3--3--3--5--5--5--5--7--7--7--7----------------------------------------|
D|-3--3--3--3--3--5--5--5--7--7--7--7----------------------------------------|
A|-1--1--1--1--3--3--3--3--5--5--5--5----------------------------------------|
E|---------------------------------------------------------------------------|

       Yeah it'll find you
e|---------------------------------------------------------------------------|
B|---------------------------------------------------------------------------|
G|-3--3--3--3--7--7--7--7----------------------------------------------------|
D|-3--3--3--3--7--7--7--7----------------------------------------------------|
A|-1--1--1--1--5--5--5--5----------------------------------------------------|
E|---------------------------------------------------------------------------|
    
       Yeah it'll find you
e|---------------------------------------------------------------------------|
B|---------------------------------------------------------------------------|
G|-3--3--3--3--7--7--7--7--3--3--3--3--7--7--7--7--3--3--3--3----------------|
D|-3--3--3--3--7--7--7--7--3--3--3--3--7--7--7--7--3--3--3--3----------------|
A|-1--1--1--1--5--5--5--5--1--1--1--1--5--5--5--5--1--1--1--1----------------|
E|---------------------------------------------------------------------------|
  


  Mommy Mommyyyyyy            Look at your son
e|---------------------------------------------------------------------------|
B|---------------------------------------------------------------------------|
G|-7--7--7--7--7--7--3--3-----------------5--5--5--5--5----------------------|
D|-7--7--7--7--7--7--3--3--3--3--3--3--3--5--5--5--5--5----------------------|
A|-5--5--5--5--5--5--1--1--3--3--3--3--3--3--3--3--3--3----------------------|
E|-------------------------1--1--1--1--1-------------------------------------|

 Maybe you once loved me       But now I got a gun
e|---------------------------------------------------------------------------|
B|---------------------------------------------------------------------------|
G|-7--7--7--7--7--7--3--3-----------------5--5--5--5--5----------------------|
D|-7--7--7--7--7--7--3--3--3--3--3--3--3--5--5--5--5--5----------------------|
A|-5--5--5--5--5--5--1--1--3--3--3--3--3--3--3--3--3--3----------------------|
E|-------------------------1--1--1--1--1-------------------------------------|

   You better stay out of my way
e|---------------------------------------------------------------------------|
B|---------------------------------------------------------------------------|
G|-3--3--3--3--5--5--5--5--7--7--7--7--7--7--7--7----------------------------|
D|-3--3--3--3--3--5--5--5--7--7--7--7--7--7--7--7----------------------------|
A|-1--1--1--1--3--3--3--3--5--5--5--5--5--5--5--5----------------------------|
E|---------------------------------------------------------------------------|

  Hey, I've had    a bad day
e|---------------------------------------------------------------------------|
B|---------------------------------------------------------------------------|
G|-3--3--3--3--5--5--5--5--7--7--7--7----------------------------------------|
D|-3--3--3--3--3--5--5--5--7--7--7--7----------------------------------------|
A|-1--1--1--1--3--3--3--3--5--5--5--5----------------------------------------|
E|---------------------------------------------------------------------------|

       I've had a bad day
e|---------------------------------------------------------------------------|
B|---------------------------------------------------------------------------|
G|-3--3--3--3--7--7--7--7----------------------------------------------------|
D|-3--3--3--3--7--7--7--7----------------------------------------------------|
A|-1--1--1--1--5--5--5--5----------------------------------------------------|
E|---------------------------------------------------------------------------|
    
       Mommy I had a bad day
e|---------------------------------------------------------------------------|
B|---------------------------------------------------------------------------|
G|-3--3--3--3--7--7--7--7----------------------------------------------------|
D|-3--3--3--3--7--7--7--7----------------------------------------------------|
A|-1--1--1--1--5--5--5--5----------------------------------------------------|
E|---------------------------------------------------------------------------|
   Oh, I had a bad day  
e|---------------------------------------------------------------------------|
B|---------------------------------------------------------------------------|
G|-3--3--3--3--7--7--7--7----------------------------------------------------|
D|-3--3--3--3--7--7--7--7----------------------------------------------------|
A|-1--1--1--1--5--5--5--5----------------------------------------------------|
E|---------------------------------------------------------------------------|

Mommy I've had a bad day
e|---------------------------------------------------------------------------|
B|---------------------------------------------------------------------------|
G|-3--3--3--3--7-------------------------------------------------------------|
D|-3--3--3--3--7-------------------------------------------------------------|
A|-1--1--1--1--5-------------------------------------------------------------|
E|---------------------------------------------------------------------------|
************************************

| /   slide up
| \   slide down
| h   hammer-on
| p   pull-off
| ~   vibrato
| +   harmonic
| x   Mute note
| b   Bend
| pb  Pre-bend
| br  Bend release
| pbr Pre-bend release
| brb Bend release bend

************************************
Добавлено: 27.05.2016
Вам также может быть интересно:
Другие материалы по этой песне:
  • Аккорды и текст

Страница создана 27.05.2016
http://primanota.ru/the-dicks/hate-police-chords.htm
Привет, Гость.
Предлагаем пройти революционный курс по гитаре.
Подарок от PrimaNota.Ru, забирай!