PrimaNota.ru - самый крупный в мире бесплатный архив песенных текстов, аккордов, табулатур и нот


The Devil Wears Prada - Zombie Ep (album) - таба, видео

Регистрация Запомнить меня
Войти через:  Facebook Google Twitter Vk Yandex Mail.ru

The Devil Wears Prada - Zombie Ep (album) - таба, видео

Печатать
Просмотров: 96
I noticed that all the tabs were here, just not put together.
I took the best rated tabs on this website.
All credit goes to their original creators:

1. Escape - rsxkilla
2. Anatomy - rsxkilla
3. Outnumbered - joseluis92
4. Revive - rsxkilla
5. Survivor - smallen

Thanks to all of them.

All songs are tuned to drop B: B F# B E G# C#


1. Escape

        0:46-57
        (all notes are tremelo picked)
C#|-------------------------------------------------------|
G#|-------------------------------------------------------|
E |-------------------------------------------------------|
B |-------------------------------------------------------|
F#|-----------------0t------------0t-1t-4t-1t-0t-1-4t-1t--|
B |--0t---1t---4t--------0t---1t--------------------------|(x2)

        0:57-1:03
C#|----------------------|-------------|
G#|----------------------|-------------|
E |----------------------|-------------|
B |--0--0--------0-------|-0--0------0-|
F#|--0--0--0-0-0-0--0-0-0|-0--0--0-0-0-|(fourth time play the 2nd bar)
B |--0--0--0-0-0-0--0-0-0|-0--0--0-0-0-|(x4)

        OH MY GOD THEYRE EVERYWHERE!
        1:03-:17
C#|----------------------------------------------------------------------|
G#|----------------------------------------------------------------------|
E |----------------------------------------------------------------------|
B |----1----------------1----------------1-------------------------------|
F#|-0--1--0-2-1-0-1--0--1--0-2-1-0-1--0--1--0-2-1-0-1---4*-3*------------|
B |-0--1--0-2-1-0-1--0--1--0-2-1-0-1--0--1--0-2-1-0-1--------3*-2*-3*-2*-|(x2)


        1:18-29
C#|--------------------------------------------------------------|
G#|--------------------------------------------------------------|
E |--------------------------------------------------------------|
B |----------------0---------------------------------------------|
F#|--0-0--0-0--0-0-0-----0-0--0-0--0-0--0-0----------------------|
B |--0-0--0-0--0-0-0-----0-0--0-0--0-0--0-0-----0t--1b-----------|
                                
                                
C#|--------------------------------------------------------------|
G#|--------------------------------------------------------------|
E |--------------------------------------------------------------|
B |------------------3*------------------------------------------|
F#|--0-0--0-0-----------------0-0-0--1-1-1--2-2-2--1-1-1--0-0-0--|
B |--0-0--0-0--0-0-0----0-0---1-1-1--2-2-2--3-3-3--2-2-2--1-1-1--|

        1:30-40
C#|-----------------------------------------------------------|
G#|-----------------------------------------------------------|
E |-----------------------------------------------------------|
B |-----------------------------------------------------------|
F#|-----------------------------------------------------------|
B |--8t---7t--5t--4t----1t--4t---8t---7t--5t--4t----1t--0t----|

        1:41-2:03  (2nd time let the 1's ring out) 
C#|--------------------------------------------------------------------|
G#|---------6~--6~~-------8~--8~~-------6~--6~~------------------------|
E |-----------7~------------9~------------7~---------------------------|
B |--------------------------------------------------------------------|
F#|--0-0-0----------8-8-8---------0-0-0--------4-4-4-4--1-1-1-1--1-1-1-|
B |--0-0-0----------8-8-8---------0-0-0--------4-4-4-4--1-1-1-1--1-1-1-|(2x)

        2:04-15
C#|-------------------------------------------------------|
G#|-------------------------------------------------------|
E |-------------------------------------------------------|
B |-------------------------------------------------------|
F#|-----------------0t------------0t-1t-4t-1t-0t-1-4t-1t--|
B |--0t---1t---4t--------0t---1t--------------------------|(x2)

        2:16-30
C#|----------------------|
G#|----------------------|
E |----------------------|
B |--0--0--------0-------|
F#|--0--0--0-0-0-0--0-0-0|
B |--0--0--0-0-0-0--0-0-0|(x2)

        (rhythm may be slightly off on the breakdowns)
C#|---------------------------|-------------------------------------------------|
G#|---------------------------|-------------------------------------------------|
E |---------------------------|-------------------------------------------------|
B |---------------------------|-------------------------------------------------|
F#|--0--0--0-0-0-0--0-0-0-0-0-|--0--0--0--0-0-0--0-0-0--0t-1t-4t-1t-0t-1-4t-1t--|
B |--1--1--1-1-1-1--1-1-1-1-1-|--1--1--1--1-1-1--1-1-1--------------------------|(x2)


        2:31-36
C#|-----------------------------------------------------------------------|
G#|-----------------------------------------------------------------------|
E |-----------------------------------------------------------------------|
B |----1----------------1----------------1--------------1--0--1--0--------|
F#|-0--1--0-2-1-0-1--0--1--0-2-1-0-1--0--1--0-2-1-0-1---1--0--1--0--0-0-0-|
B |-0--1--0-2-1-0-1--0--1--0-2-1-0-1--0--1--0-2-1-0-1---1--0--1--0--0-0-0-|

        2:37-53 (strumming patterns may be differnt i just guessed for tab)
C#|--------------------------------------------------------------------------------|
G#|--------------------------------------------------------------------------------|
E |--------------------------------------------------------------------------------|
B |--0-------1-----0-------1------5-----8------0-----------------0-----------------|
F#|--0(x12)--1(x4)-0(x12)--1(x4)--5(x8)-8(x8)--0--0-0-0-1--1-1-1-0--0-0-0-1--1-1-1-|
B |--0-------1-----0-------1------5-----8------0--0-0-0-1--1-1-1-0--0-0-0-1--1-1-1-|

        2:37-3:06
C#|-------------------------------|
G#|-------------------------------|
E |--7~~-8~~-7~~-7~~-8~~-7~~------|
B |--6~~-7~~-6~~-6~~-7~~-6~~------|
F#|---------------------------0---|
B |---------------------------0---|

   3:10-32 (on 2nd and 4th repeat play the fill and only play (3) 0,1's)
C#|-----------------------------------------------|----------|
G#|-----------------------------------------------|----------|
E |-----------------------------------------------|--6-7-8-9-|
B |-----------------------------------------------|--5-6-7-8-|
F#|--0---0---0---0--0---0---0---0---0---0--0---0--|----------|
B |--0---0---0---0--0---0---1---1---1---1--1---1--|----------|(x4)

        3:33-47
             pickslide
C#|----------------------------------------------------------------------------------|
G#|----------------------------------------------------------------------------------|
E |----------------------------------------------------------------------------------|
B |--0~~-1~~-///---------------------------------------------------------------------|
F#|--0~~-1~~-///--1t--5t-3t-1t-5t-3t-1t-0t-----1t--5t-3t-1t-5t-3t-1t-4t--5t--4t--1t--|
B |--0~~-1~~-///---------------------------4t----------------------------------------|


        3:48-4:10  (2nd time let the 1's ring out)
C#|--------------------------------------------------------------------|
G#|---------6~--6~~-------8~--8~~-------6~--6~~------------------------|
E |-----------7~------------9~------------7~---------------------------|
B |--------------------------------------------------------------------|
F#|--0-0-0----------8-8-8---------0-0-0--------4-4-4-4--1-1-1-1--1-1-1-|
B |--0-0-0----------8-8-8---------0-0-0--------4-4-4-4--1-1-1-1--1-1-1-|(2x)

        4:11-35
        (all notes are tremelo picked)
C#|-------------------------------------------------------|
G#|-------------------------------------------------------|
E |-------------------------------------------------------|
B |-------------------------------------------------------|
F#|-----------------0t------------0t-1t-4t-1t-0t-1-4t-1t--|
B |--0t---1t---4t--------0t---1t--------------------------|(x2)

        
C#|-------------|
G#|-------------|
E |-------------|
B |-----0~~~~---|
F#|--0--0~~~~---|
B |--0--0~~~~---|


2. Anatomy

      Intro 0:00-0:27
C#|-------------------------------------------------------------|
G#|-------------------------------------------------------------|
E |----------------------------------8-8------------------------|
B |--0-------1-------1-0------0------8-8------1------4----------|
F#|--0--0-0--1--0-0--1-0--0-0-0--0-0-6-6--0-0-1--0-0-4----------|
B |--0--0-0--1--0-0--1-0--0-0-0--0-0------0-0-1--0-0-4----------|x6
(2nd guitar comes in with an open chord at the 3rd repeat then pick slides into the riff)


         0:28-0:40
C#|-------------------------------------------------------------|
G#|-------------------------------------------------------------|
E |-------------------------------------------------------------|
B |--0-0-----------0-0------------------------------------------|
F#|--0-0--0-0-0-0--0-0------------0-0-0-0--5--------------------|
B |--0-0--0-0-0-0--0-0------------0-0-0-0-----0-0-7h8-----------|

C#|-------------------------------------------------------------|
G#|-------------------------------------------------------------|
E |-------------------------------------------------------------|
B |--0-0-----------0-0------------------------------------------|
F#|--0-0--0-0-0-0--0-0-----------0-0-0-0------------------------|
B |--0-0--0-0-0-0--0-0-----------0-0-0-0--8--0-0-4h5------------|

C#|-------------------------------------------------------------|
G#|-------------------------------------------------------------|
E |-------------------------------------------------------------|
B |--0-0-----------0-0------------------------------------------|
F#|--0-0--0-0-0-0--0-0----------0-0-0-0--8----------------------|
B |--0-0--0-0-0-0--0-0----------0-0-0-0-----0-0-10h12-----------|(2nd guitar 
repeats the 2 previous bars)

C#|-------------------------------------------------------------|
G#|-------------------------------------------------------------|
E |-------------------------------------------------------------|
B |--0-0-----------0-0------------------------------------------|
F#|--0-0--0-0-0-0--0-0------------0-0-0-0--5--------------------|
B |--0-0--0-0-0-0--0-0------------0-0-0-0-----0-0-7h8-----------|

        0:41-53
C#|-------------------------------------------------------------|
G#|-------------------------------------------------------------|
E |-------------------------------------------------------------|
B |-------------------------------------------------------------|
F#|--9-------9-------9h10p9-----8--8---------8~~~~--------------|
B |----0-0-0---0-0-0--------0-0------0-0-0-0--------------------|x2
 

         (2nd guitar repeats the above riff again)
C#|-------------------------------------------------------------|
G#|-------------------------------------------------------------|
E |-------------------------------------------------------------|
B |-------------------------------------------------------------|
F#|--13-------13-------13h15p13-----12--12---------12~~~~-------|
B |-----0-0-0----0-0-0----------0-0--------0-0-0-0--------------|x2

        0:54-57 (breakdown rhythm may be slightly off)
C#|-------------------------------------------------------------|
G#|-------------------------------------------------------------|
E |-------------------------------------------------------------|
B |-0-----------------------------------------------------------|
F#|-0---0-0----------0-0-----------0-0--------------------------|
B |-0---0-0--0-0-0-0-0-0---0-0-0-0-0-0--------------------------|

        0:58-1:17
C#|-------------------------------------------------------------|
G#|-------------------------------------------------------------|
E |-------------------------------------------------------------|
B |-0~--------0~--0-0------0~-0~-0------0~--4--0--1--4~---------|
F#|-0~-0--0-0-0~--0-0--0-0-0~-0~-0--0-0-0~--4--0--1--4~---------|
B |-0~-0--0-0-0~--0-0--0-0-0~-0~-0--0-0-0~--4--0--1--4~---------|

C#|-------------------------------------------------------------|
G#|-------------------------------------------------------------|
E |-------------------------------------------------------------|
B |-0~--------0~--0-0------0~-0~-0------0~--4--0--1~~~~---------|
F#|-0~-0--0-0-0~--0-0--0-0-0~-0~-0--0-0-0~--4--0--1~~~~---------|
B |-0~-0--0-0-0~--0-0--0-0-0~-0~-0--0-0-0~--4--0--1~~~~---------|


C#|-------------------------------------------------------------------|
G#|-------------------------------------------------------------------|
E |-------------------------------------------------------------------|
B |-------------------------------------------------------------------|
F#|-0--4h7---0-5h8----4h7---0-5h8---4h7----0-5h8----4h7---------------|
B |-0------0-0------0-----0-0-----0------0-0-----0--------------------|(1st guitar)

C#|-------------------------------------------------------------|
G#|-------------------------------------------------------------|
E |-------------------------------------------------------------|
B |-0------0----0-----------------------------------------------|
F#|-0--0-0-0----0--0-0-0--0-0-0--0-0-0---------0-0-0------------|
B |-0--0-0-0----0--0-0-0--0-0-0--0-0-0---0-0---0-0-0------------|(2nd guitar)

C#|----------------------|
G#|----------------------|
E |----------------------|
B |-0--------------------|
F#|-0--0-0-0--0-0-0------|
B |-0--0-0-0--0-0-0------|
        1:18-:24

                (third guitar plays the same breakdown over this section)
C#|-----------------------------------------------------------------------|
G#|-----------------------------------------------------------------------|
E |-----------------------------------------------------------------------|
B |-----------------------------------------------------------------------|
F#|-0--5h8---4h7----0-5h8---4h7---0-5h8---4h7----0-5h8--------------------|
B |-0------0------0-0-----0-----0-0-----0------0-0--------0-0-0-0-0-0-0-0-|(1st guitar)

C#|--------------------------------------------------------------------------|
G#|--------------------------------------------------------------------------|
E |--------------------------------------------------------------------------|
B |--------------------------------------------------------------------------|
F#|-0--8h12---7h10---0-8h12---7h10--0-8h12--7h10----0-8h12-------------------|
B |-0-------0------0-0------0-----0-0------0------0-0--------0-0-0-0-0-0-0-0-|(2nd guitar)
        1:25-:51
C#|-------------------------------------------------------------|
G#|-------------------------------------------------------------|
E |----------------------------------8-8------------------------|
B |--0-------1-------1-0------0------8-8------1------4----------|
F#|--0--0-0--1--0-0--1-0--0-0-0--0-0-6-6--0-0-1--0-0-4----------|(guitar 1 repeats 3 times)
B |--0--0-0--1--0-0--1-0--0-0-0--0-0------0-0-1--0-0-4----------|x3

C#|-----------------------------|
G#|-----------------------------|
E |-----------------------------|
B |--0-------1-------1-0--------|
F#|--0--0-0--1--0-0--1-0-0------|
B |--0--0-0--1--0-0--1-0-0------|(guitar 2 plays this on the 3rd repeat)

C#|--------------------------------------------|
G#|--------------------------------------------|
E |--------------------------------------------|
B |--0-------1-------1-0-----------------------|
F#|--0--0-0--1--0-0--1-0-0------------8\3---3--|
B |--0--0-0--1--0-0--1-0-0---0--8--0------3----|

C#|----------------------------------------|
G#|----------------------------------------|
E |----------------------------------------|
B |---------------------7----------8-------|
F#|--------8\3---3-----------5-------------|
B |--8--0------3----0-----5-----5----5-----|4x

        1:52-2:16
C#|--------------------------------------------------|
G#|--------------------------------------------------|
E |--------------------------------------------------|
B |--------------------------------------------------|
F#|--0--------------------------------------1-1-4-0--|
B |--0---3b---0---1b---0---3b---0---1b---0-----------|4x

C#|-----------------------------|-------------|
G#|-----------------------------|-------------|
E |-----------------------------|-------------|
B |-----------------------------|-------------|
F#|--0---0---0---0------1-1-4-0-|--0---0--0-0-|(2nd guitar repeats the previous bar)
B |--0---0---0---0---0----------|--0---0--0-0-|4x(fourth time play 2nd ending)

        2:16-2:42
C#|---------|
G#|---------|
E |---------|
B |--0~-----|(guitar 1 plays this 8 times)
F#|--0~-----|(guitar 2 plays this 4 times)
B |--0~-----|8x

C#|--------------------------------------------------|
G#|--------------------------------------------------|
E |--------14----15----14----12----12----12----12h14-|
B |--12-12----12----12----12----12----12----12-------|
F#|--------------------------------------------------|(guitar 2)
B |--------------------------------------------------|3x

C#|------------------------------|
G#|------------------------------|
E |--------14----15----14--12~---|
B |--12-12----12----12-----------|
F#|------------------------------|
B |------------------------------|

        2:43-3:33
C#|----------------------------------------------------------------|
G#|----------------------6------6-------6-6------------------------|
E |--7-8-7--5-7----------5------5-------5-5------------------------|
B |--x-x-x--x-x-------------------------------8------5------7------|
F#|--5-6-5--3-5-------------------------------8(x12)-5(x12)-7(x12)-|
B |--------------0-0-0-0--0-0-0---0-0-0-------8------5------7------|(4x)

        3:34-3:40

C#|-------------------------------------------------------------|
G#|-------------------------------------------------------------|
E |----------------------------------8-8------------------------|
B |--0-------1-------1-0------0------8-8------1------4----------|
F#|--0--0-0--1--0-0--1-0--0-0-0--0-0-6-6--0-0-1--0-0-4----------|
B |--0--0-0--1--0-0--1-0--0-0-0--0-0------0-0-1--0-0-4----------|

C#|------------------------------------|
G#|------------------------------------|
E |------------------------------------|
B |--0-------1-------1-0---------------|
F#|--0--0-0--1--0-0--1-0--0-0----------|
B |--0--0-0--1--0-0--1-0--0-0----------|


3. Outnumbered

LEAD: CHRIS' PART

Repeat these 2 bars 4 times, 2nd time end in a pinch harmonic

C#|----------------------------------------|
G#|----------------------------------------|
E |----------------------------------------|
B |----------------------------------------|
F#|---554488775---554488775----------------|
B |---------------------------88775544-----|

                                                 2nd time
C#|----------------------------------------------|------|
G#|----------------------------------------------|------|
E |----------------------------------------------|------|
B |-------------------77--88----1010----10101212-|--12*-|
F#|---554488775---5544--88--1010----1212---------|------|
B |----------------------------------------------|------|

End in

C#|-----|
G#|-----|
E |-----|
B |-----|
F#|-0---|
B |-0---|
    *

Repeat this bar twice

C#|--------------------------------------------------|
G#|--------------------------------------------------|
E |--------------------------------------------------|
B |--------------------------------------------------|
F#|-000000000---0-000-000-000---000000000-000000000--|
B |-000000000---0-000-000-000---000000000-000000000--|
    *********   * *** *** ***   ********* *********

C#|---------------------------------------|
G#|---------------------------------------|
E |---------------------------------------|
B |-8-1----8-8---8-8---8---8-8---8-8------|
F#|-8-1----8-8---8-8---8---8-8---8-8-12\--|
B |-8-1--0-8-8-0-8-8-0-8-0-8-8-0-8-8-12\--|
         *     *     *   *     *

Sexy riff of sexiness

C#|-----------------------------------|
G#|-----------------------------------|
E |-----------------------------------|
B |----------------5------------------|
F#|----8-7-------------8-7---7h8p7-7*-|
B |--0-----0-8-7-0---0-----0----------|
     *     *     *   *     *

C#|----------------------------------|
G#|----------------------------------|
E |----------------------------------|
B |---8-8---8-8---8---8-8---8-8------|
F#|---8-8---8-8---8---8-8---8-8-12\--|
B |-0-8-8-0-8-8-0-8-0-8-8-0-8-8-12\--|
    *     *     *   *     *

C#|--------------------------------------------------------------------|
G#|--------------------------------------------------------------------|
E |--------------------------------------------------------------------|
B |----------------5--------------------------------5------------------|
F#|----8-7-------------8-7---7h8p7-7*---8-7-------------8-7---7h8p7-7*-|
B |--0-----0-8-7-0---0-----0----------0-----0-8-7-0---0-----0----------|
     *     *     *   *     *          *     *     *   *     *

For the following bars, just alternate (listen to the song)

Rhythm guitar is the one playing the chords, lead plays this

C#|-------------------------------------|
G#|-------------------------------------|
E |-------------------------------------|
B |-------------------------------------|
F#|-------------------------------------|
B |-888888888888-7777-55555555-77777777-|

He plays this live, so you can play this if you want to...
I don't think this is audible in the recording though

C#|-------------------------------------------------------------------------|
G#|-------------------------------------------------------------------------|
E |-1515151515151515151515151515-14141414-1212121212121212-1414141414141414-|
B |-------------------------------------------------------------------------|
F#|-1313131313131313131313131313-12121212-1010101010101010-1212121212121212-|
B |-------------------------------------------------------------------------|

Db|-----------------------------------|
G#|-----------------------------------|
E |-----------------------------------|
B |-----------------------------------|
F#|-------------------------/13-12-10-|
B |-0-10h12-12~-0-10h12-12~-----------|

Eventually (this time he slightly bends and releases the 12's)

C#|-------------------------------------------------------------|
G#|-------------------------------------------------------------|
E |-------------------------------------------------------------|
B |-------------------------------0-----------------------------|
F#|-------------------------0-0-0-0-----------------------0-0-0-|
B |-0-10h12-12^-0-10h12-12~-0-0-0-0-10h12-12^-0-10h12-12~-0-0-0-|
                            * * *                         * * *

The octave chords are barely audible, so you might wanna play
rhythm's chords if you prefer (chords are 0 8 4 and 0 8 11 barre
power chords)

C#|---------------------------------------------|
G#|---------------------------------------------|
E |-7---15---11------------7---15---18----------|
B |-x----x----x------------x----x----x----------|
F#|-5---13----9--0-1-2-1---5---13---16--0-1-2-1-|
B |--------------1-2-3-2----------------1-2-3-2-|
                 * * * *                * * * *

This is what is being played in the background...
I've seen live videos and sometimes he plays it live too

C#|------------------------------------|
G#|------------------------------------|
E |--20-------19------15------14-------|
B |---x--x16---x--x16--x--x16--x--x16--|
F#|--18-------17------13------12-------|
B |------------------------------------|

But you should play this instead :D

C#|------------------------------------------------------------|
G#|------------------------------------------------------5*----|
E |------------------------------------------------------5*----|
B |-----------1----------------------------1-------------5*----|
F#|-0-1-2-1-0-1---0---0-0--0-0---0-1-2-1-0-1---0---0-0-0---00--|
B |-1-2-3-2-1-1-1-1---1-1--1-1---1-2-3-2-1-1-1-1---1-1-1---11--|
    * * * * *   * *   * *  * *   * * * * *   * *   * * *   **

C#|--------------------------------------------------------------|
G#|--------------------------------------------------------------|
E |--------------------------------------------------------------|
B |-----------1----------------------------1-------------0-------|
F#|-0-1-2-1-0-1---0---0-0--0-0---0-1-2-1-0-1---0---0-0-0-0-0-----|
B |-1-2-3-2-1-1-1-1---1-1--1-1---1-2-3-2-1-1-1-1---1-1-1-1-1-3*^-|
    * * * * *   * *   * *  * *   * * * * *   * *   * * *   *

Intro revisited (play these two bars twice)

C#|----------------------------------------|
G#|----------------------------------------|
E |----------------------------------------|
B |----------------------------------------|
F#|---554488775---554488775----------------|
B |---------------------------88775544-----|

                                                 2nd time
C#|----------------------------------------------|------|
G#|----------------------------------------------|------|
E |----------------------------------------------|------|
B |-------------------77--88----1010----10101212-|--12*-|
F#|---554488775---5544--88--1010----1212---------|------|
B |----------------------------------------------|------|

Repeat 2 times

C#|---------------------------------|
G#|---------------------------------|
E |---------------------------------|
B |---------------------------------|
F#|---------------------------------|
B |-11-0-0---0-12-0-0---0-11-0-8-0--|

Repeat 2 times

C#|----------------------------------|
G#|----------------------------------|
E |----------------------------------|
B |----------------------------------|
F#|----------------------------------|
B |-14-0-0---0-15-0-0---0-14-0-12-0--|

Alternate between these two bars

C#|-------------------------------------|
G#|-------------------------------------|
E |-------------------------------------|
B |-------------------------------------|
F#|-------------------------------------|
B |-888888888888-7777-55555555-77777777-|

C#|-----------------------------------|
G#|-----------------------------------|
E |-----------------------------------|
B |-----------------------------------|
F#|-------------------------/13-12-10-|
B |-0-10h12-12~-0-10h12-12~-----------|

Last time around

C#|-------------------------------|
G#|-------------------------------|
E |-------------------------------|
B |-------------------------------|
F#|-------------------------------|
B |-888888888888-7777-55555555-44-|


IMPORTANT!!!

The tremolo picking part sounds right/better when played ALONG with rhythm
guitar (which plays 5's then 7's), although if you want it to sound closer to the 
play 5's then 4's instead of 8's then 4's

C#|----------------------------------------------------------------|
G#|----------------------------------------------------------------|
E |----------------------------------------------------------------|
B |----------------------------------------------------------------|
F#|-00---0-00-00---00000---00---000000---0-00-00-------------------|
B |-00---0-00-00---00000---00---000000---0-00-00-88888888-44444444-|
    **   * ** **   *****   **   ******   * ** **

2nd and 4th time

C#|------------------------------------------------------------------------|
G#|------------------------------------------------------------------------|
E |------------------------------------------------------------------------|
B |------------------------------------------------------------------------|
F#|-00---0-00-00---00000---00---000000---0-00-00---------------------------|
B |-00---0-00-00---00000---00---000000---0-00-00-88888888-1010101010101010-|
    **   * ** **   *****   **   ******   * ** **

Sketchy/barely audible/wtf is going on outro

C#|-------------------------------------|
G#|-------------------------------------|
E |--7-7-7-7-7-7-7-7-7-7-7-7-7-7-7-7----|
B |-------------------------------------|
F#|--5-5-5-5-5-5-5-5-5-5-5-5-5-5-5-5--0-|
B |-----------------------------------0-|
                                      *

If you watch live videos you can clearly see Jeremy (rhythm) playing the previous bar 
Chris (lead) plays this chord multiple times..you can
kindaaaa hear this being played along with the 5x7 octaves, but the outro
by itself is already just an audio mess

Strum lightly

C#|---------------|
G#|---------------|
E |--15-----------|
B |--14---x16-----|
F#|--13---------0-|
B |-------------0-|
                *

RHYTHM: JEREMY'S PART

C#|---------------------------------------------|
G#|---------------------------------------------|
E |---------------------------------------------|
B |---------------------------------------8-1---|
F#|-000000000---000000000------------0000-8-1---|
B |-000000000---000000000-88775544---0000-8-1---|
    *********   *********            ****

C#|---------------------------------|
G#|---------------------------------|
E |---------------------------------|
B |-0---0--------------0------8-1---|
F#|-0---0--------------0------8-1---|
B |-0---0---88775544---0------8-1---|

C#|--------------------------------------------|
G#|--------------------------------------------|
E |--------------------------------------------|
B |--------------------------------------8-1---|
F#|-000000000---000000000--000-000--0000-8-1---|
B |-000000000---000000000--000-000--0000-8-1---|
    *********   *********  *** ***  ****

End in

C#|-----|
G#|-----|
E |-----|
B |-----|
F#|-0---|
B |-0---|
    *

Repeat this bar twice

C#|--------------------------------------------------|
G#|--------------------------------------------------|
E |--------------------------------------------------|
B |--------------------------------------------------|
F#|-000000000---0-000-000-000---000000000-000000000--|
B |-000000000---0-000-000-000---000000000-000000000--|
    *********   * *** *** ***   ********* *********

C#|---------------------------------------|
G#|---------------------------------------|
E |---------------------------------------|
B |-8-1----8-8---8-8---8---8-8---8-8------|
F#|-8-1----8-8---8-8---8---8-8---8-8-12\--|
B |-8-1--0-8-8-0-8-8-0-8-0-8-8-0-8-8-12\--|
         *     *     *   *     *

Sexy riff of sexiness

C#|-----------------------------------|
G#|-----------------------------------|
E |-----------------------------------|
B |-----------------------------------|
F#|----5-4---------7---5-4---4h5p4-7*-|
B |--0-----0-8-7-0---0-----0----------|
     *     *     *   *     *

C#|----------------------------------|
G#|----------------------------------|
E |----------------------------------|
B |---8-8---8-8---8---8-8---8-8------|
F#|---8-8---8-8---8---8-8---8-8-12\--|
B |-0-8-8-0-8-8-0-8-0-8-8-0-8-8-12\--|
    *     *     *   *     *

C#|--------------------------------------------------------------------|
G#|--------------------------------------------------------------------|
E |--------------------------------------------------------------------|
B |--------------------------------------------------------------------|
F#|----5-4---------7---8-7---4h5p4-7*---5-4---------7---5-4---4h5p4-7*-|
B |--0-----0-8-7-0---0-----0----------0-----0-8-7-0---0-----0----------|
     *     *     *   *     *          *     *     *   *     *

Alternate between these two bars

C#|-----------------|
G#|-----------------|
E |-----------------|
B |-8-----7-5---7---|
F#|-8-----7-5---7---|
B |-8-----7-5---7---|

C#|---------------------------------|
G#|---------------------------------|
E |---------------------------------|
B |---------------------------------|
F#|-------------------------/10-8-7-|
B |-0-10h12-12~-0-10h12-12~---------|

Eventually
ONLY PLAY THE PALM MUTED 0'S, LEAD PLAYS IN THE BACKGROUND

C#|-------------------------------------------------------------|
G#|-do-not-play-this-part-----------do-not-play-this-part-------|
E |-vvvvvvvvvvvvvvvvvvvvv-----------vvvvvvvvvvvvvvvvvvvvv-------|
B |-------------------------------------------------------------|
F#|-------------------------0-0-0-------------------------0-0-0-|
B |-0-10h12-12~-0-10h12-12~-0-0-0-0-10h12-12~-0-10h12-12~-0-0-0-|
                            * * *                         * * *

Repeat this bar twice

C#|----------------------------------------------|
G#|----------------------------------------------|
E |----------------------------------------------|
B |-0---8---4-------------0---8---11-------------|
F#|-0---8---4---0-1-2-1---0---8---11---0-1-2-1---|
B |-0---8---4---1-2-3-2---0---8---11---1-2-3-2---|
                * * * *                * * * *

C#|------------------------------------------------------------|
G#|------------------------------------------------------5*----|
E |------------------------------------------------------5*----|
B |-----------1----------------------------1-------------5*----|
F#|-0-1-2-1-0-1---0---0-0--0-0---0-1-2-1-0-1---0---0-0-0---00--|
B |-1-2-3-2-1-1-1-1---1-1--1-1---1-2-3-2-1-1-1-1---1-1-1---11--|
    * * * * *   * *   * *  * *   * * * * *   * *   * * *   **

C#|--------------------------------------------------------------|
G#|--------------------------------------------------------------|
E |--------------------------------------------------------------|
B |-----------1----------------------------1-------------0-------|
F#|-0-1-2-1-0-1---0---0-0--0-0---0-1-2-1-0-1---0---0-0-0-0-0-----|
B |-1-2-3-2-1-1-1-1---1-1--1-1---1-2-3-2-1-1-1-1---1-1-1-1-1-3*^-|
    * * * * *   * *   * *  * *   * * * * *   * *   * * *   *

C#|---------------------------------------------|
G#|---------------------------------------------|
E |---------------------------------------------|
B |---------------------------------------8-1---|
F#|-000000000---000000000------------0000-8-1---|
B |-000000000---000000000-88775544---0000-8-1---|
    *********   *********            ****

C#|---------------------------------|
G#|---------------------------------|
E |---------------------------------|
B |-0---0--------------0------8-1---|
F#|-0---0--------------0------8-1---|
B |-0---0---88775544---0------8-1---|

Repeat this bar 4 times

C#|---------------------------------|
G#|---------------------------------|
E |---------------------------------|
B |---------------------------------|
F#|---------------------------------|
B |-11-0-0---0-12-0-0---0-11-0-8-0--|

Alternate between these two bars

C#|-----------------|
G#|-----------------|
E |-----------------|
B |-8-----7-5---7---|
F#|-8-----7-5---7---|
B |-8-----7-5---7---|

C#|---------------------------------|
G#|---------------------------------|
E |---------------------------------|
B |---------------------------------|
F#|-------------------------/10-8-7-|
B |-0-10h12-12~-0-10h12-12~---------|

Last time around

C#|------------------|
G#|------------------|
E |------------------|
B |-8-----7-5---44---|
F#|-8-----7-5---44---|
B |-8-----7-5---44---|

Again, the tremolo part sounds better when played along w/lead
Repeat 4 times

C#|----------------------------------------------------------------|
G#|----------------------------------------------------------------|
E |----------------------------------------------------------------|
B |----------------------------------------------------------------|
F#|-00---0-00-00---00000---00---000000---0-00-00-------------------|
B |-00---0-00-00---00000---00---000000---0-00-00-55555555-77777777-|
    **   * ** **   *****   **   ******   * ** **

The zero's are to add depth to the sound, but are not necessary

C#|-------------------------------------|
G#|-------------------------------------|
E |--7-7-7-7-7-7-7-7-7-7-7-7-7-7-7-7----|
B |-------------------------------------|
F#|--5-5-5-5-5-5-5-5-5-5-5-5-5-5-5-5--0-|
B |--0-0-0-0-0-0-0-0-0-0-0-0-0-0-0-0--0-|


4. Revive

        0:10-20 (rhythm of open notes may be off slightly)
C#|-----------------------------------------------------------------|
G#|-----------------------------------------------------------------|
 E|-----------------------------------------------------------------|
 B|-----------------------------------------------------------------|
F#|------------------------------------------------1-----2----------|
 B|--2p0-0-2p0-0-2p0-2p0-2p0-2p0-2p0-0-2p0-0-2p0-----3-1---4-2------|

C#|-----------------------------------------------------------------|
G#|-----------------------------------------------------------------|
 E|-----------------------------------------------------------------|
 B|-----------------------------------------------------------------|
F#|------------------------------------------------1-----2----------|
 B|--2p0-0-2p0-0-2p0-2p0-2p0-2p0-2p0-0-2p0-0-2p0-----3-1---4-3*-----|

        0:21-36 (breakdown may be slightly off)
C#|---------------------------------------------------------------------|
G#|---------------------------------------------------------------------|
 E|---------------------------------------------------------------------|
 B|--0----------0-0--------------0-0------0----------0-0----------------|
F#|--0--0-0-0-0-0-0-0-0--0-0-0-0-0-0-0-0--0--0-0-0-0-0-0-1-----2--------|
 B|--0--0-0-0-0-0-0-0-0--0-0-0-0-0-0-0-0--0--0-0-0-0-0-0---3-1---4-2----|

C#|-----------------------------------------------------------------------------|
G#|-----------------------------------------------------------------------------|
 E|-----------------------------------------------------------------------------|
 B|--0----------0-0--------------0-0------0----------0-0------------------------|
F#|--0--0-0-0-0-0-0-0-0--0-0-0-0-0-0-0-0--0--0-0-0-0-0-0-1-----2-----1-----2----|
 B|--0--0-0-0-0-0-0-0-0--0-0-0-0-0-0-0-0--0--0-0-0-0-0-0---3-1---4-2---3-1---4-2|

C#|----------------------------------|
G#|----------------------------------|
 E|--7-------------------------------|
 B|--x--------\\\\\------------------|
F#|--5----0-0-\\\\\------------------|
 B|-------0-0-\\\\\------------------|


        0:37-48
C#|-----------------------------------------------------------------|
G#|-----------------------------------------------------------------|
 E|-----------------------------------------------------------------|
 B|------------------7---5---------------------------7---5---8---7--|
F#|--5-----7-8---5-----------7-7-7---5-----7-8---5------------------|
 B|----0-0-----0---0---0---0-----------0-0-----0---0---0---0---0----|(x2)

        0:49-1:06
C#|-----------------------------------|
G#|-----------------------------------|
 E|-----------------------------------|
 B|--0--0-0-----------0--0-0----------|
F#|--0--0-0--0-0-0-0--0--0-0--0-0-0-0-|
 B|--0--0-0--0-0-0-0--0--0-0--0-0-0-0-|(x2)

C#|----------------------------------------------|
G#|----------------------------------------------|
 E|----------------------------------------------|
 B|--12/15-12----12/15-12-----14-15-14-14-15-14--|
F#|-----------15----------15---------------------|
 B|----------------------------------------------|

        1:07-30
C#|--------------------------------------------------------------------|
G#|--------------------------------------------------------------------|
 E|--------------------------------------------------------------------|
 B|--------------------------------------------------------------------|
F#|--------------------------------------------------------------------|
 B|---0t---8t--5t---7t---8t---3t--5t---0t---8t--5t---7t---8t---3t------|(x2)
        
        1:31-:41
C#|-------------------------------------------------------------------|
G#|-------------------------------------------------------------------|
 E|--9-----7---6------9-----7---6-------------------------------------|
 B|--X-----X---X---0--X-----X---X-------------------------------------|
F#|--7-----5---4~--0--7-----5---4----------4-4-4-4--------------------|
 B|----0-0---0-----0----0-0---0---8--8-8-8----------------------------|


C#|-------------------------------------------------------------------|
G#|-------------------------------------------------------------------|
 E|--9-----7---6------9-----7---6-------------------------------------|
 B|--X-----X---X---0--X-----X---X-------------------------------------|
F#|--7-----5---4~--0--7-----5---4-----------0-------------------------|
 B|----0-0---0-----0----0-0---0---8--8-8-8--0-------------------------|


        1:42-1:54
C#|----------------------------------------------------------------------|
G#|----------------------------------------------------------------------|
 E|----------------------------------------------------------------------|
 B|--0-------0-0~--------------------------------------------------------|
F#|--0--0-0--0-0~----0-0---------0-0----------0-0------------------------|
 B|--0--0-0--0-0~--8-0-0-8-0~--4-0-0-4-0~--1--0-0--1-0--0--0--0--0-0-0-0-|


        1:55-2:21 (REALLY WEIRD BREAKDOWN, TABBED RHYTHM MAY BE SLIGHTLY OFF)
C#|-------------------------------------------------------------------|
G#|-------------------------------------------------------------------|
 E|-------------------------------------------------------------------|
 B|----0-0-0-0-----------------0------------------0--0-0-----------3*-|
F#|----0-0-0-0--0-0--0-0--0-0--0--0-0--0-0-0-0-0--0--0-0--------------|
 B|----0-0-0-0--0-0--0-0--0-0--0--0-0--0-0-0-0-0--0--0-0-0-0-0-0-0----|

C#|-------------------------------------------------------------------|
G#|-------------------------------------------------------------------|
 E|-------------------------------------------------------------------|
 B|----0-0-0-0-----------------0------------------0--0-0--------------|
F#|----0-0-0-0--0-0--0-0--0-0--0--0-0--0-0-0-0-0--0--0-0--------------|
 B|----0-0-0-0--0-0--0-0--0-0--0--0-0--0-0-0-0-0--0--0-0-0-0-0-0-0----|

C#|-------------------------------------------------------------------|
G#|-------------------------------------------------------------------|
 E|-------------------------------------------------------------------|
 B|----2-2-2-2-----------------2------------------1--1-1--------------|
F#|----2-2-2-2--2-2--2-2--2-2--2--2-2--1-1-1-1-1--1--1-1--------------|
 B|----2-2-2-2--2-2--2-2--2-2--2--2-2--1-1-1-1-1--1--1-1-1-1-1-1-1----|

C#|-------------------------------------------------------------------|
G#|-------------------------------------------------------------------|
 E|-------------------------------------------------------------------|
 B|----0-0-0-0-----------------0------------------0--0-0--------------|
F#|----0-0-0-0--0-0--0-0--0-0--0--0-0--0-0-0-0-0--0--0-0--------------|
 B|----0-0-0-0--0-0--0-0--0-0--0--0-0--0-0-0-0-0--0--0-0-0-0-0-0-0----|

        2:22-48
C#|------------------|
G#|------------------|
 E|------------------|
 B|----5~----11~-----|
F#|----5~----11~-----|
 B|----5~----11~-----|

C#|---------------------------------------------------------------------------|
G#|---------------------------------------------------------------------------|
 E|---------------------------------------------------------------------------|
 B|--0------------------------------------------------------------------------|
F#|--0------------------8---7--8-7-7h8p7--5---4---5-4-4h5p5-------------------|
 B|--0--0-0-0-0-0-0-0-0---0--0--------------0---0-----------8-0-7-0-8-0-7-10h12|(x2)


C#|--------------------------------------------------------------------------|
G#|--------------------------------------------------------------------------|
 E|--------------------------------------------------------------------------|
 B|--------------------------------------------------------------------------|
F#|--8---7---8----7--3h5-5*----0-0--0-0--0-0-------------------8--5--10------|
 B|----0---0---0---------------0-0--0-0--0-0--0-0-0-0-0-0-0-0--8--5--10------|(x2)
        
        2:49-3;23
C#|--------------------------------------------------------------------|
G#|--------------------------------------------------------------------|
 E|--------------------------------------------------------------------|
 B|--------------------------------------------------------------------|
F#|--------------------------------------------------------------------|
 B|---0t---8t--5t---7t---8t---3t--5t---0t---8t--5t---7t---8t---3t------|
(play until guitar fades out)


5. Survivor

Intro
|-----------------------------------------------------|
|--------------1111111111111111-----------------------|
|--------8-----x-x-x-x-x-x-x-x-------------77777777---|
|--8-7-0-x-0---8-8-8-8-8-8-8-8---------0---xxxxxxxx---|
|--8-7-0-6-0---------------------1-3-2-0---55555555---|
|--8-7-0---0---------------------1-3-2-0--------------|
                                 . . .
|-----------------------------------------------------|
|--------------1111111111111111-----------------------|
|--------8-----x-x-x-x-x-x-x-x-------------77777778---|
|--8-7-0-x-0---8-8-8-8-8-8-8-8---------0---xxxxxxxx---|
|--8-7-0-6-0---------------------1-3-2-0---55555556---|
|--8-7-0---0---------------------1-3-2-0--------------|
                                 . . .


|-------------------------------------------------|
|------------1111111111111111---------------------|
|------------x-x-x-x-x-x-x-x-----------77777777---|
|--------0---8-8-8-8-8-8-8-8-------0---xxxxxxxx---|
|--1-3-2-0-------------------1-3-2-0---55555555---|
|--1-3-2-0-------------------1-3-2-0--------------|
   . . .                     . . .
|----------------------------------------------------------------|
|--------------1111111111111111----------------------------------|
|--------8-----x-x-x-x-x-x-x-x-------------77777777--------------|
|--8-7-0-x-0---8-8-8-8-8-8-8-8---------0---xxxxxxxx--------------|
|--8-7-0-6-0---------------------1-3-2-0---55555555--------------|
|--8-7-0---0---------------------1-3-2-0------------1-0--0-0-0-0-|
                                 . . .                .  . . . .


|---------------------------------------------------------------------------|
|---11---11--------------------------11---11--------------------------------|
|---x----x---------------------------x----x---------------------------------|
|---8----8---5---5---1---1---0---0---8----8---1---1-------------------------|
|------------5---5---1---1---0---0------------1---1---1---------------------|
|-0----0---0---0---0---0---0---0---0----0---0---0---0-1--0h4h7p4p0h4h7p4p0--|
  .    .   .   .   .   .   .   .   .    .   .   .   .                         
|---------------------------------------------------------------------------|
|---11---11--------------------------11---11--------------------------------|
|---x----x---------------------------x----x---------------------------------|
|---8----8---5---5---1---1---0---0---8----8---1---1-------------------------|
|------------5---5---1---1---0---0------------1---1---1---------------------|
|-0----0---0---0---0---0---0---0---0----0---0---0---0-1--0h1h4p1p0h1h4p1p0--|
  .    .   .   .   .   .   .   .   .    .   .   .   .

guitar break


|--------------|
|--------------|
|--------------|
|--0-5-3-8-10--|
|--0-5-3-8-10--|
|--0-5-3-8-10--|
strum these chords 4 times listen to song for rhythm. 

|-----------|
|-----------|
|-----------|
|-0~---1-0--|
|-0~---1-0--|
|-0~---1-0--|

|----------------------------------------------------------|
|--------------1111111111111111----------------------------|
|--------8-----x-x-x-x-x-x-x-x-------------7777777---------|
|--8-7-0-x-0---8-8-8-8-8-8-8-8---------0---xxxxxxx---------|
|--8-7-0-6-0---------------------1-3-2-0---5555555--1-3-2--|
|--8-7-0---0---------------------1-3-2-0------------1-3-2--|
                                 . . .              . . .
breakdown 
|----------------------------------------------------|
|----------------------------------------------------|
|----------------------------------------------------|    
|----------------------------------------------------| x4 2nd time instead
|--000000--000000--00000---00-00-00-00-00-00000-10/--|    of the slide play
|--000000--000000--00000---00-00-00-00-00-00000-10/--|    a pitch harmonic on
   ......  ......  .....   .. .. .. .. .. .....           3 on the A string

|------------------|
|------------------|
|------------------|
|------------------|
|--000000--000000--|
|--000000--000000--|
   ......  ......

|--------------------------------------|
|--------------------------------------|
|--------------------------------------|
|--------------------------------------| x2
|--00-00--00-00-------00-00--00-00-00--|
|--00-00--00-00-------00-00--00-00-00--|
   .. ..  .. ..       .. ..  .. .. ..

|-------------------|
|-------------------|
|-------------------|
|-------------------| x4
|--00-00--00-00-00--|
|--00-00--00-00-00--|
   .. ..  .. .. ..      


Thanks again to all the creators.
Добавлено: 14.12.2015
Другие материалы по этой песне:
  • Аккорды и текст

Страница создана 14.12.2015
http://primanota.ru/the-devil-wears-prada/zombie-ep-album-chords.htm
Привет, Гость.
Предлагаем пройти революционный курс по гитаре.
Подарок от PrimaNota.Ru, забирай!