PrimaNota.ru - самый крупный в мире бесплатный архив песенных текстов, аккордов, табулатур и нот


The Devil Wears Prada - This Song Is Called - текст песни, таба, бас-таба, видео

Регистрация Запомнить меня
Войти через:  Facebook Google Twitter Vk Yandex Mail.ru

The Devil Wears Prada - This Song Is Called - текст песни, таба, бас-таба, видео

Печатать
Просмотров: 206
Уроки эстрадного вокала в Санкт-Петербурге
This is a pretty easy song by a great band, try playing this i am pretty sure this is 
accurate, and if it isnt it sounds great. well here it is ...

The Devil Wears Prada
This Song Is Called
Drop D


(Keyboard Intro)

Guitar 1

(I am the speaker but...)
e|---------------------------------------------------|
B|---------------------------------------------------|
G|---------------------------------------------------|
D|-8~-----------------5~-----------------------------|
A|-8~------------5-5--5~-----------------------------|
D|-8~------------5-5--5~--------------0~-------------|
PM               * *


Guitar 2

e|---------------------------------------------------|
B|---------------------------------------------------|
G|---------------------------------------------------|
D|-8~-----------------5~-----------------------------|
A|-8~------------5-5--5~-----------------------------|
D|-8~------------5-5--5~--------------0--------------|
PM               * *


Guitar 1

(This is beg of you)
|-------------------------------|
|-------------------------------|
|-------------------------------|
|-8888------5555------0000------|
|-8888-(x4)-5555-(x4)-0000-(x8)-|
|-8888------5555------0000------|

Guitar 2 is doin a lead that is hard to pick out but it is following the scales of the 
notes above^^
Добавлено: 12.07.2012
Другие материалы по этой песне:

Страница создана 19.03.2012
http://primanota.ru/the-devil-wears-prada/this-song-is-called-chords.htm
Привет, Гость.
Предлагаем пройти революционный курс по гитаре.
Подарок от PrimaNota.Ru, забирай!