PrimaNota.ru - самый крупный в мире бесплатный архив песенных текстов, аккордов, табулатур и нот


The Devil Wears Prada - My Questions - текст песни, таба, видео

Регистрация Запомнить меня
Войти через:  Facebook Google Twitter Vk Yandex Mail.ru

The Devil Wears Prada - My Questions - текст песни, таба, видео

Печатать
Просмотров: 102
*Note= This is my first tab I've ever done so it might not be 100% correct.Enjoy! =)



 Intro

e|------------/12---------------------/17---17\----------------/13-12--------|
B|---6-----------13--10-------6------------------------6--------------13-----|
G|-7---7-7------------------7----7-7--------15\------7---7-7-----------------|
D|---------------------------------------------------------------------------|
A|---------------------------------------------------------------------------|
E|---------------------------------------------------------------------------|

e|--15-------17---17\---|----------------------------------------------------|
B|-----13---------------|---6~--------8~--------8h10p8-----------------------|
G|----------------15\---|---7~--------9~----------------9h10-----------------|
D|----------------------|----------------------------------------------------|
A|----------------------|----------------------------------------------------|
E|-------------------4X-|----------------------------------------------------|

Chorus

e|---------------------------------------------------------------------------|
B|---------------------------------------------------------------------------|
G|---------------------------------------------------------------------------|
D|----8-------0-------5-------7----------------------------------------------|
A|----8-------0-------5-------7----------------------------------------------|
E|----8-------0-------5-------7----------------------------------------------|

After chorus
e|---------------------------------------------------------------------------|
B|---------------------------------------------------------------------------|
G|---------------------------------------------------------------------------|
D|---------------------------------------------------------------------------|
A|----0--0--0----------0--0--0----------0--0--0----------0--0--0-------------|
E|----0--0--0----------0--0--0----------1--1--1----------1--1--1-------------|

*(Back To Intro)*

First Breakdown

e|----------------------------|----------------------------------------------|
B|----------------------------|----------------------------------------------|
G|----------------------------|----------------------------------------------|
D|----------------------------|--0--0--0--1--0--0~-----0--0--0--1--0---------|
A|--0-0-0-0----0-0-0-0----0-0-|--0--0--0--1--0--0~-----0--0--0--1--0---------|
E|--0-0-0-0----0-0-0-0----0-0-|--0--0--0--1--0--0~-----0--0--0--1--0--/4~--X2|

e|---------------------------------------------------------------------------|
B|----------------7-------7------------------------------7-------7-----------|
G|----------------7-------7------------------------------7-------7-----------|
D|-Pick Slide\----x-------x--------------Pick Slide\-----x-------x-----------|
A|-Pick Slide\----5-------5--------------Pick Slide\-----5-------5-----------|
E|-Pick Slide\------0------/8--0--0-----Pick Slide\---------0------/8--0--11~|

e|---------------------------------------------------------------------------|
B|------------------------7-------7------------------------------------------|
G|------------------------7-------7------------------------------------------|
D|------------------------x-------x------------------------------------------|
A|--0--0--0--1--0--0------5-------5------------------------------------------|
E|--0--0--0--1--0--0---------0---------/8--0--11~---11\----------------------|


*(Chorus)*


e|---------------------------------------------------------------------------|
B|---------------------------------------------------------------------------|
G|---------------------------------------------------------------------------|
D|---------------------------------------------------------------------------|
A|---------------------------------------------------------------------------|
E|--8tr--------0tr--------5tr--------7tr-------------------------------------|

2nd Breakdown

e|-------------------------------------|-------------------------------------|
B|---------6---------------------------|-------------------------------------|
G|---------7---------------------------|-------------------------------------|
D|-------------------4--------1--------|-------------------------------------|
A|---0---------0--0--4--0--0--1--0-----|--0--0----0-0-0-0---00---------------|
E|---0---------0--0--4--0--0--1--0--X3-|--0--0----0-0-0-0---00--Repeat Twice-|

Final Breakdown

e|---------------------------------------------------------------------------|
B|---------------------------------------------------------------------------|
G|---------------------------------------------------------------------------|
D|--0-0-0-0-----0-0-0-0-----0-0-0-0-----0-0-0-0------------------------------|
A|--0-0-0-0-----0-0-0-0-----0-0-0-0-----0-0-0-0------------------------------|
E|--0-0-0-0-----0-0-0-0-----0-0-0-0-----0-0-0-0------------------------------|
Добавлено: 24.02.2012
Другие материалы по этой песне:

Страница создана 24.02.2012
http://primanota.ru/the-devil-wears-prada/my-questions-chords.htm
Привет, Гость.
Предлагаем пройти революционный курс по гитаре.
Подарок от PrimaNota.Ru, забирай!