PrimaNota.ru - самый крупный в мире бесплатный архив песенных текстов, аккордов, табулатур и нот


The Devil Wears Prada - Lord Xenu - текст песни, таба, видео

Регистрация Запомнить меня
Войти через:  Facebook Google Twitter Vk Yandex Mail.ru

The Devil Wears Prada - Lord Xenu - текст песни, таба, видео

Печатать
Просмотров: 118
::::EDIT:::: I listened to the song later on and noticed a few things. intro riff is 
i changed it. lead part after the intro riff. and another lead part at 1:18 to 1:38

its in dropped d

this is an easy song to play/ figure out. im tabbing the gist of the song, most of the 
parts. the rest you can figure out being that tdwp uses almost the same notes and frets 
every one of their songs.

heres the notes, figure out the strumming becuase im too lazy to tab it.

m-palm mute

*-mute

~let ring

intro
                 vv bend the last notes
|---------------------------------------------------------|
|---------------------------------------------------------|
|--10---9---12---12---------------------------------------|
|---x---x----x----x---------------------------------------|
|---8---7---10---10---------------------------------------|
|---------------------------------------------------------|

intro riff thing
                                      use pull offs on this riff
|-------------------------------------------------------------|
|-------------------------------------------------------------|
|--------9---99---10101010101010-----------9109---------------|
|--------x---xx----x-x-x-x-x-x-x---------------12100----------|  x2
|--0-0---7---77----8-8-8-8-8-8-8--0m----0----------10-12------|
|--0-0----------------------------0m----0---------------------|

|-------------------------------------------------------------|
|-------------------------------------------------------------|
|--------1414--1414---14141414141414-----------9109-----------|
|---------x-x---x-x----x-x-x-x-x-x-x---------------12100------|
|--0-0---1212--1212---12121212121212--0m----0----------10-12--|
|--0-0--------------------------------0m----0-----------------|

        0:30                     0:39
|-------------------------------------------------------------|
|-------------------------------------------------------------|
|-------------------------------------------------------------|(lead)
|-----10-8-5-7-3-5-2-3-2--------------------------------------|
|-5/7---------------------------------------------------------|
|-------------------------------------------------------------|


  (this is twice i think)vvv
|---------------------------|------------------------------|
|---------------------------|------------------------------|(rhythm)
|---------------------------|------------------------------|
|---------------------------|------------------------------|
|--0~--------------0-0-0*---|--------5---8---0---3---------|
|--0~--------------0-0-0*---|--------5---8---0---3---------|
                                   ^strum numerous times (you'll get it)


not tabbing the breakdown from 0:59 to 1:17 ..its a bunch of opens,
i figured it out so can you


                     the lead riff at 1:18 to 1:38 is
|------------------|---------------------------------------------------------|
|------------------|---------------------------------------------------------|
|--10101010--9999--|---------14-15-14------------14-15-14-------------14-15--|
|---x-x-x-x--xxxx--|--12--15----------15--12--15-----------15--12--15--------|
|---8-8-8-8--7777--|---------------------------------------------------------|
|------------------|---------------------------------------------------------|

(1:27-28)                 (1:37-38)
|-121312-----------------|-121312----151715-1213--|
|-------13--131513-------|-------1315-------------|
|---------14------1214---|------------------------|
|------------------------|------------------------|
|------------------------|------------------------|
|------------------------|------------------------|
|------------------------|------------------------|


then at 1:38-1:56 it goes to strumming 8 to 10 to open
strum 8 and 10 approximately 14 times, then double that open.

|----------------------------------------------------------------|
|----------------------------------------------------------------|
|----------------------------------------------------------------|
|----------------------------------------------------------------| x2
|---8---10---0---------------------------------------------------|
|---8---10---0---------------------------------------------------|

next part (1:57 to 2:17)

|----------------------------------------------------------------|
|----------------------------------------------------------------|
|----------------------------------------------------------------|
|-----------------------10-------5-7----------------10-------5-7-|
|--8--7--5--------8---0------5---------8------8---0------5-------|
|--8--7--5----000---0------0---0-----0---0000---0------0---0-----|
that goes into this vvv  (may be a little different)

|----------------------------------------------------------------|
|----------------------------------------------------------------|
|----------------------------------------------------------------|
|------------------10-------5-7----------------10-------5-7------|
|--10-8------8---0------5---------8------8---0------5------------|
|--10-888------8------8---8-----8---8888---8------8---8----------|

|----------------------------------------------------------------|
|----------------------------------------------------------------|
|----------------------------------------------------------------|
|-----------------10-------5-7----------------10-------10-12-----|
|--8-5------8---0------5---------8------8---0------5-------------|
|--8-555------5------5---5-----5---5555---5------5---5-----------|

all that twice then another breakdown with all opens

little riff at 2:36-2:37/8

|-----------------------|
|-----------------------|
|--9109-----------------|
|------10120------------|
|-----------1012--------|
|-----------------------|

then the ending break down is all opens basically except for the little bend on D 1

well thats it.

tabbed by josh fahey. first one too, i just fixed it after listening to it later that night.
Добавлено: 18.05.2012
Другие материалы по этой песне:

Страница создана 15.04.2012
http://primanota.ru/the-devil-wears-prada/lord-xenu-chords.htm
Привет, Гость.
Предлагаем пройти революционный курс по гитаре.
Подарок от PrimaNota.Ru, забирай!