PrimaNota.ru - самый крупный в мире бесплатный архив песенных текстов, аккордов, табулатур и нот


The Devil Wears Prada - Html Rulez D00d - текст песни, таба, бас-таба, видео

Регистрация Запомнить меня
Войти через:  Facebook Google Twitter Vk Yandex Mail.ru

The Devil Wears Prada - Html Rulez D00d - текст песни, таба, бас-таба, видео

Печатать
Просмотров: 242
Уроки эстрадного вокала в Санкт-Петербурге
hey guys i just tabbed this out like two days ago and i just thought i'd let yall see 
if theres any thing i got wrong just let me know www.myspace.com/dev92j


|-------------------------------------------|
|-------------------------------------------|
|999-999-999999--777-777-777777-------------|
|xxx-xxx-xxxxxx--xxx-xxx-xxxxxx-------------|(x2)
|777-777-777777--555-555-555555-------------|
|-------------------------------------------|

intro
|-------------------------------------------|
|-------------------------------------------|
|-------------------------------------------|
|3----141414--3-----141414------------------|
|3(x7)-x-x-x--3(x7)-x-x-x-------------------|
|3----121212--3-----121212------------------|

verse 1
|-------------------------------------------|
|-------------------------------------------|
|-------------------------------------------|
|0~--141414----0~--121212-------------------|
|0~---x-x-x(x3)0~---x-x-x-------------------|
|0~--121212----0~--101010-------------------|


|-------------------------------------------|
|-------------------------------------------|
|--10--------12-----------------------------|
|---x(x7)-----x(x7)-------------------------|
|---8--------10-----------------------------|
|-------------------------------------------|

   (do the same as verse 1)

|-------------------------------------------|
|-------------------------------------------|
|---7---------------------------------------|
|---x(strumming?)---------------------------|
|---5---------------------------------------|
|-------------------------------------------|


|-------------------------------------------|
|-------------------------------------------|
|---7/10\9\3/10\---------0~~~~--------------|
|---x--x-x-x--x-(x2)-----0~~~~--------------|
|---5/-8\7\1/-8\---------0~~~~--------------|


|-------------------------------------------|
|-------------------------------------------|
|---7-------9-------10-------12------10-----|
|---x(x15)--x(x15)---x(x15)---x(x8)---x(x8)-|(x2 all)
|---5-------7--------8-------10-------8-----|
|-------------------------------------------|

|-------------------------------------------|
|-------------------------------------------|
|-------------------------------------------|
|-0000--0--0--0000--0000--------------------|
|-0000--0--0--0000--0000(x3)----------------|
|-0000--0--0--0000--0000--------------------|
  ....  .  .  ....  ....

|-------------------------------------------|
|-------------------------------------------|
|-------------------------------------------|
|--0000--0~~------------------------0~~-----|
|--0000--0~~(x4)---------------*3---0~~-----|
|--0000--0~~-----0-1-2-3-5-3-0------0~~-----|
   ....  .       . . . . . . .

Examine These...These Beautiful Faces
|-------------------------------------------|
|-------------------------------------------|
|-------------------------------------------|
|--0------3------5------8------------0~~----|
|--0(x16)-3(x16)-5(x16)-8(x16)-(x2)--0~~----|
|--0 -----3------5------8------------0~~----|


|-------------------------------------------|
|-------------------------------------------|
|-------------------------------------5/7---|
|-00---9--7--12-10-5p7--3-00--9--7----x/x---|(x5)
|-00--------9-------------00-------9--3/5---|
|-00----------------------00----------------|
  ..                      ..


Breakdown
|--------------------------------------------------|
|--------------------------------------------------|
|--------------------------------------------------|
|--00-00-00-0-0-00-00-00-0-0-00-00-00-0-0-00-00-00-|
|--00-00-00-0-0-00-00-00-0-0-00-00-00-0-0-00-00-00-|
|--00-00-00-0-0-00-00-00-0-0-00-00-00-0-0-00-00-00-|
   .. .. .. . . .. .. .. . . .. .. .. . . .. .. ..

|---------------------------------------------|
|---------------------------------------------|
|---------------------------------------------|
|------00-00-00-0-0-00-00-00-0-0-00-0-0-00-00-|
|------00-00-00-0-0-00-00-00-0-0-00-0-0-00-00-|
|--*3--00-00-00-0-0-00-00-00-0-0-00-0-0-00-00-|

THE END
Добавлено: 09.05.2012
Другие материалы по этой песне:

Страница создана 01.03.2012
http://primanota.ru/the-devil-wears-prada/html-rulez-d00d-chords.htm
Привет, Гость.
Предлагаем пройти революционный курс по гитаре.
Подарок от PrimaNota.Ru, забирай!