PrimaNota.ru - самый крупный в мире бесплатный архив песенных текстов, аккордов, табулатур и нот


The Devil Wears Prada - First Sight - таба, видео

Регистрация Запомнить меня
Войти через:  Facebook Google Twitter Vk Yandex Mail.ru

The Devil Wears Prada - First Sight - таба, видео

Печатать
Просмотров: 95
-------------------------------------------------------------------------------
                             First Sight by The Devil Wears Prada
-------------------------------------------------------------------------------
Tabbed by: xMinistry555
E-mail: byobgaming@live.de

I used this video http://www.youtube.com/watch?v=_U8YFiZjbDQ to tab out the song
Post corrections in comment section

Tuning: B F# B E G# C#


Intro 3x
e|---------------------|
B|---------------------|
G|10p9---7p6-----------|
D|-----0-----8-7-------|
A|---------------8--8--|
E|------------0---0----|
       .      .   .
|------------------------------------------------------------------------|
|------------------------------------------------------------------------|
|------------------------------------------------------------------------|
|------------------------------------------------------------------------|
|---1----4-4----1--1-5-5----1-----4-4---1--1-5-3+----1----4-4----1--1-5-5|
|-0---0-0-0---0--0--0-0---0---0-0-0---0--0--0-0----0---0-0-0---0--0--0-0-|


e|--------------------------------------------------|
B|-10-10-10-----------------------------------------|
G|---7--7--7----------------------------------------|
D|---------------------7s10------7------------------|
A|------------3------5-----------5----7s8s12--------|
E|-------------3s5-7--------8----5--0--------12-----|

e|----------------------------------------|
B|----------------------------------------|
G|----------------------------------------|
D|-----------7s10------7------------------|
A|--3------5-----------5----7s8---0-0-----|
E|---3s5-7--------8----5---0------0-0-----|

4x (forth time only play till !)
e|--------------------------------------|
B|--------------------------------------|
G|--------------------------------------|
D|--------------------------------------|
A|-00--00--00--00--00--00--00--00--0-0--|
E|-00--00--00--00--00--00--00--00--0-0--|
                            !

Chorus
e|-----------------------------------------------------------------------------|
B|-----------------------------------------------------------------------------|
G|-----------------------------------------------------------------------------|
D|-0--5s7s4--------------------------------------------------------------------|
A|-0--3s5s2-------------------------------------7-7-7-7-7--8888-101010101010---|
E|-0---------0-0-13-0-0-0-0-0-0-17-0-0-0-0-0-0-3-3-3-3-3--0--------------------|


e|-----------------------------------------------------------------------------|
B|-----------------------------------------------------------------------------|
G|-----------------------------------------------------------------------10----|
D|------------------------------------------------------------------------x----|
A|-8-5---5-7-8---12-----8---12----10----8--7-7-7-7-7---8888-101010101010--8----|
E|-----0-------0----0-0---0---0-0----0-0--3-3-3-3-3--0-------------------------|


|------------------------------------------------------------------------|
|------------------------------------------------------------------------|
|------------------------------------------------------------------------|
|------------------------------------------------------------------------|
|---1----4-4----1--1-5-5----1-----4-4---1--1-5-3+----1----4-4----1--1-5-5|
|-0---0-0-0---0--0--0-0---0---0-0-0---0--0--0-0----0---0-0-0---0--0--0-0-|

e|---------------------|
B|---------------------|
G|10p9---7p6-----------|
D|-----0-----8-7-------|
A|---------------8--8--|
E|------------0---0----|
       .      .   .

|------------------------------------------------------------------------|
|------------------------------------------------------------------------|
|----------------------7-------------------------------------------------|
|----------------------x-------------------------------------------------|
|---1----4-4----1--1-5-5----1-----4-4---1--1-5-3+----1----4-4----1--1-5-5|
|-0---0-0-0---0--0--0-0---0---0-0-0---0--0--0-0----0---0-0-0---0--0--0-0-|

e|--------------------------------------------------------------5+------------|
B|--------------------------------------------------------------5+------------|
G|--------------------------------------------------------------5+------------|
D|-12p11---8--8s11-------12p11---8---8s11---8--7--5--4~-----5p4-5+------------|
A|------------------0.-----------------------------------0.---------0.--------|
E|-------0---0------0.---------0---0------0---0--0--0----0.---------0.--------|

e|---------------------|
B|---------------------|
G|10p9---7p6-----------|
D|-----0-----8-7-------|
A|---------------8--8--|
E|------------0---0----|
       .      .   .

Chorus x2
e|-----------------------------------------------------------------------------|
B|-----------------------------------------------------------------------------|
G|-----------------------------------------------------------------------------|
D|-0--5s7s4--------------------------------------------------------------------|
A|-0--3s5s2-------------------------------------7-7-7-7-7--8888-101010101010---|
E|-0---------0-0-13-0-0-0-0-0-0-17-0-0-0-0-0-0-3-3-3-3-3--0--------------------|


e|-----------------------------------------------------------------------------|
B|-----------------------------------------------------------------------------|
G|-----------------------------------------------------------------------10----|
D|------------------------------------------------------------------------x----|
A|-8-5---5-7-8---12-----8---12----10----8--7-7-7-7-7---8888-101010101010--8----|
E|-----0-------0----0-0---0---0-0----0-0--3-3-3-3-3--0-------------------------|

Clean Part
e|---------------------------------------------------------------------------|
B|---------------------------------------------------------------------------|
G|---------------------------------------------------------------------------|
D|---------------------------------------------------------------------------|
A|---------------------------------------------------------------------------|
E|---------------------------------------------------------------------------|

play these chord/note multiple times
e|------------|
B|------15----|
G|-11---------|
D|--x---------|
A|--9---------|
E|------------|

e|-----------------------------------------|
B|-----------------------------------------|
G|-----------------------------------------|
D|--------------------------------------10-|
A|-00--00--00--00--00--00--00--00--0-0--10-|
E|-00--00--00--00--00--00--00--00--0-0--10-|

|------------------------------------------------------------------------|
|------------------------------------------------------------------------|
|----------------------7-------------------------------------------------|
|----------------------x-------------------------------------------------|
|---1----4-4----1--1-5-5----1-----4-4---1--1-5-3+----1----4-4----1--1-5-5|
|-0---0-0-0---0--0--0-0---0---0-0-0---0--0--0-0----0---0-0-0---0--0--0-0-|

e|----------------------|
B|----------------------|
G|10p9---7p6------------|
D|-----0-----8-7--------|
A|---------------8--8---|
E|------------0---0---0-|
       .      .   .


************************************

| /   slide up
| \   slide down
| h   hammer-on
| p   pull-off
| ~   vibrato
| +   harmonic
| x   Mute note
| b   Bend
| pb  Pre-bend
| br  Bend release
| pbr Pre-bend release
| brb Bend release bend

************************************
Добавлено: 10.10.2013
Другие материалы по этой песне:

Страница создана 10.10.2013
http://primanota.ru/the-devil-wears-prada/first-sight-chords.htm
Привет, Гость.
Предлагаем пройти революционный курс по гитаре.
Подарок от PrimaNota.Ru, забирай!