PrimaNota.ru - самый крупный в мире бесплатный архив песенных текстов, аккордов, табулатур и нот


The Death Letters - Your Heart Upside Down - таба, видео

Регистрация Запомнить меня
Войти через:  Facebook Google Twitter Vk Yandex Mail.ru

The Death Letters - Your Heart Upside Down - таба, видео

Печатать
Просмотров: 99
Death letters - Your Heart Upside Down
D - Tuning
By: Stijn Strotmann

 Intro/Post Chorus

|------|------|
|------|--0-0-|
|-11-7-|--x-x-|
|-9--9-|--7-9-|
|-7--7-|--x-x-|
|-0--0-|--8-8-|

 Verses

|-----|-------|
|-0---|---0-0-|
|-7---|---x-x-|
|(5)--|---7-9-|
|-7---|---x-x-|
|-0---|---8-8-|

 Chorus

|-----|------------|
|-1-0-|------------|
|-0-2-|-7-77-7/9-2-|
|-2-2-|-7-77-7/9-0-|
|-3-0-|-5-55-5/7-x-|
|-----|----------3-|

  Bridge

|---------0-----|-----|
|-------------0-|-0-0-|
|-5-5-4h5---5---|-5-4-|
|---------------|-5-5-|
|---------------|-----|
|---------------|-3-3-|

|------|------|
|------|----1-|
|-5-4--|-(2)0-|
|-5-5--|--2-2-|
|------|--2-3-|
|-3-3--|--0---|


|------|------|
|-0-0--|--0-0-|
|-5-4--|--x-x-|
|-5-5--|--7-9-|
|------|--x-x-|
|-3-3--|--8-8-|
...First ones are wrong, i know :)

 Outro

|-------|--------------|
|-7-----|----------0---|
|---0---|------0-----0-|
|-------|----9---7-----|
|-------|--------------|
|----0--|--8-----------|
Добавлено: 01.12.2013
Вам также может быть интересно:
Другие материалы по этой песне:
  • Аккорды и текст

Страница создана 01.12.2013
http://primanota.ru/the-death-letters/your-heart-upside-down-chords.htm
Привет, Гость.
Предлагаем пройти революционный курс по гитаре.
Подарок от PrimaNota.Ru, забирай!