PrimaNota.ru - самый крупный в мире бесплатный архив песенных текстов, аккордов, табулатур и нот


The Dears - Galactic Tides - аккорды и текст, видео

Регистрация Запомнить меня
Войти через:  Facebook Google Twitter Vk Yandex Mail.ru

The Dears - Galactic Tides - аккорды и текст, видео

Печатать
Просмотров: 73
Galactic Tides
The Dears
Please rate and comment! enjoy! Great song!

surprised no one has tabbed this song yet!

'Galactic Tides'
by The Dears

Intro 

C#(note)     C#5
Longing for love
B(note)       B5
Hunting down souls
A(note)              A5        A5   G#       G#sus4           G#
 We're runnin' out of songs to sing


Chorus

F#m /  /  /  E  /  Esus4 /
 Galactic tides
A   /  /  /       E  /   Esus4 /
 Will end our lives
G#  /  /  /     A   /  /  /  
 Chasing us down
       E  /  /  /  G#  /  /  /  G#sus4    G#    C#m /  /  /    C# 
 In the moonlight___

Verse
F#m   /  /  /     C#m   /  /  /
 Chains bound our thoughts
E /  /  /         B  /  Bsus4 B
 Dreams go unlocked
D   /  /  /      A  /  /  /       G# /  /  / G#sus4  /  G#  /
 So leavin' out remains behind for good

Chorus

F#m /  /  /  E  /  Esus4 /
 Galactic tides
A   /  /  /       E  /   Esus4 /
 Will end our lives
G#  /  /  /     A   /  /  /  
 Taking us down
       E   /  G#  /  /  /  G#sus4    G#   
 In the moonlight___

Solo Chords 

F#m ///    G# ///  B///     F# ///  A ///  E///     G# ///  G#sus4 / G#/


tab first bit solo (any help with the parts here would be great!

E-------------------------------------------------------------------------------------------------------
B-------------------------------------------------------------------------------------------------------
G--13----------------------------------11----8----------------------------3-4-3-------------------------
D-----14----11-----10-11-13---------------------9--8989898-- slide_______-4-4-4------2---4--4--2-4-2-----
A---------------------------------11--------------------------------------------------------------------
E---------------------------------------------------------------------------------------------------0---


E------------
B------------
G------5-6-6-5-
D------------
A------3-4-4-3-
E---4--------


Chorus x 2

F#m /  /  /  E  /  Esus4 /
 Galactic tides
A   /  /  /       E  /   Esus4 /
 Will end our lives
G#  /  /  /     A   /  /  /  
 Taking us down
       E   /  G#  /  /  /  G#sus4    G#   
 In the moonlight___





Добавлено: 25.07.2015
Другие материалы по этой песне:
  • Аккорды и текст

Страница создана 25.07.2015
http://primanota.ru/the-dears/galactic-tides-chords.htm
Привет, Гость.
Предлагаем пройти революционный курс по гитаре.
Подарок от PrimaNota.Ru, забирай!