PrimaNota.ru - самый крупный в мире бесплатный архив песенных текстов, аккордов, табулатур и нот


The Dear Hunter - This Vicious Place - таба, видео

Регистрация Запомнить меня
Войти через:  Facebook Google Twitter Vk Yandex Mail.ru

The Dear Hunter - This Vicious Place - таба, видео

Печатать
Просмотров: 61
Soo, really good solo from a really good song from a really good album from a really 
good band, have fun!
Timing may be a little bit off and some mistakes may be there but I think its about 
98.5% right

e|-------------------------------------------------------------------|
B|-------------------------------------------13----------------------|
G|----12-------------12b14-------------12b14---------9-10/12---------|
D|-10------12-----10---------10-----10-----------12----------14-12---|
A|-------------------------------------------------------------------|
E|-------------------------------------------------------------------|

e|---------------------------------------------------------------------------------------------|
B|----11/13-15--------------------------------------11--11--11--11--11--11--11--11--11--11-13--|
G|-----------------------------------------------/12--12--12--12--12--12--12--12--12--12-------|
D|-10-----------12/14---------10-12/14-12-10---------------------------------------------------|
A|----------------------10-12----------------13------------------------------------------------|
E|---------------------------------------------------------------------------------------------|

e|-------12--12----------------------------------------------------------|
B|-13-15--------15-13-11-------------------------------------------------|
G|------------------------14-12-10--12p10-9p7---5-7-9-14-12-9-12--14\5---|
D|-----------------------------------------------------------------------|
A|----------------------------------------------3-5-7-12-10-7-10--12\3---|
E|-----------------------------------------------------------------------|

e|------------------------------------------------------------|
B|-8-10-13-13/17-15-13-11/13-8----8-6--------6/8-6-5----------|
G|------------------------------------7/9-7-------------------|
D|-5--7-10-10/14-12-10--8/10-5--5---------------------5p3p2---|
A|------------------------------------------------------------|
E|------------------------------------------------------------|

e|------------------------------------------------------|
B|----------5-8--7----------------8-11-15-15p14-15------|
G|-------5---------8---8-9----------------12-------15---|
D|---2/3---5---------9------------5-8--12-12------------|
A|-3-----------------------9-6--------------------------|
E|-----------------------------7------------------------|

e|-------------------16--------------------------------------------------------13------|
B|-------------12-------17------------11---8------------8----------------10-------15---|
G|-------13-------13-------16-13---------8----8-------8------------10-------10---------|
D|----------14--------------------6/8-----------8-5/8-----------12----12---------------|
A|-11/14--------------------------------------------------10/12------------------------|
E|-------------------------------------------------------------------------------------|

e|-------------------------------------------------|
B|-/13---------------------------------------------|
G|-----13-/13----/10----/5-------------------------|
D|------------15-----11----6-6\3-/3----------------|
A|----------------------------------4-/4-3-3-------|
E|-------------------------------------------4-3---|
Добавлено: 28.07.2013
Другие материалы по этой песне:
  • Аккорды и текст

Страница создана 28.07.2013
http://primanota.ru/the-dear-hunter/this-vicious-place-chords.htm
Привет, Гость.
Предлагаем пройти революционный курс по гитаре.
Подарок от PrimaNota.Ru, забирай!