PrimaNota.ru - самый крупный в мире бесплатный архив песенных текстов, аккордов, табулатур и нот


The Dear Hunter - The Oracles On The Delphi Express - текст песни, таба, бас-таба, видео

Регистрация Запомнить меня
Войти через:  Facebook Google Twitter Vk Yandex Mail.ru

The Dear Hunter - The Oracles On The Delphi Express - текст песни, таба, бас-таба, видео

Печатать
Просмотров: 189
-------------------------------------------------------------------------------
                The Oracles On the Delphi Express- The Dear Hunter
-------------------------------------------------------------------------------
Tabbed by: Tyler Gjersee

Tuning: Standard

So this song is mostly banjo and piano hits, which makes the chords weird. I
 suggest playing power chords except for the Am and the chorus. If you have
 any corrections or comments then please post them



Riff 1
e|-----------------------------|
B|-5--6-8-6-5--6-8-6-5---------|
G|-----------------------------|
D|-----------------------------|
A|-----------------------------|
E|-----------------------------|

Riff 2
e|--5-4-5--------------------------------------------------------------------|
B|---------5-4-5---------------------0--4-5-6-5-4--5-------------------------|
G|----------------5-4-5------------1------------------5-4-5-4-5--------------|
D|----------------------7--6-7---2-------------------------------------------|
A|---------------------------------------------------------------------------|
E|---------------------------------------------------------------------------|



Am                        F       E      D#
Stick with us, throw your morals out the door

E                 D           C              B     Am   
You aren't in the land of the river and the lake no more

Am                            F     E        D#
Makeshift schemes, we've got plenty here for you

E              D          C     B       Am
Lock away your dreams and throw away the key

Chorus:
F                                              Am (Riff 2)
You've been stuck in the middle of patience and animosity

F                                                    E          (Riff 1)
With a lust for solidity, and a cryptic history your luck's running thin


Repeat chords from here:


Crimson hands, brandish words which masquerade
If you flee from grace your souls can not be saved
Big steam ships, exits illustrate the flood
Don't be ashamed of your unlawful flaw

E              D             C        B          Am                  
When the bombs go off you'll know right where you are

You've been stuck in the middle of patience and animosity
With a lust for solidity, and a cryptic history your lucks running thin

Cool Bridge Part:
 Repeat 4X                                     
e|---------------------------------------------------------|
B|-------------------------------------6--5------5---------|
G|------------------------------------------7--5----5------|
D|----------------------------------------------------6--7-|
A|------------------------3--7-----------------------------|
E|-5-----0-3--0-3--5----5------5---------------------------|




e|--------------------------------------------|
B|--------------------------------------------|
G|--------------------------------------------|
D|-------------------2\1----------2-----------|
A|---------------------------3----------2-----|
E|------0-3--4-5------------------------------|

                                              Repeat 3X
E|--------------------------------------------------------|
B|--------------------------------------------------------|
G|-2-1-0------------------------------------------1-------|
D|-------4-3-2-0---3-2-0----------------------------------|
A|---------------3---------3-0-2-3-5-6-5-3-2-0-2-3--------|
E|--------------------------------------------------------|

                                                 Last Time
E|--------------------------------------------------------|
B|--------------------------------------------------------|
G|-2-1-0--------------------------------------------------|
D|-------4-3-2-0---3-2-0-------------------2--------------|
A|---------------3---------3-0-2-3-5-6--3----2--0---------|
E|--------------------------------------------------------|


The solo: Turn up the distortion and just play really fast on the Am scale

F                                               Am (Riff 3)
You've been stuck in the middle of patience and animosity

E|-----------------------------------|
B|-----------------------------------|
G|-2-1-0-----------------------------|
D|-------4-3-2-0---3-2-0-------------|
A|---------------3---------3-0-2-3-5-|
E|-----------------------------------|
(Kind of hard to hear)

F                                              E
With a lust for solidity, and a cryptic history your luck's running thin


I don't have the full outro but it's basically Church and the Dime so I'd
 rather just tab out that song rather than figure out the end right now. 
Добавлено: 22.05.2012
Другие материалы по этой песне:
  • Аккорды и текст

Страница создана 30.03.2012
http://primanota.ru/the-dear-hunter/the-oracles-on-the-delphi-express-chords.htm
Привет, Гость.
Предлагаем пройти революционный курс по гитаре.
Подарок от PrimaNota.Ru, забирай!