PrimaNota.ru - самый крупный в мире бесплатный архив песенных текстов, аккордов, табулатур и нот


The Dear Hunter - The Church And The Dime - текст песни, таба, видео

Регистрация Запомнить меня
Войти через:  Facebook Google Twitter Vk Yandex Mail.ru

The Dear Hunter - The Church And The Dime - текст песни, таба, видео

Печатать
Просмотров: 112
Уроки эстрадного вокала в Санкт-Петербурге
-------------------------------------------------------------------------------
                             SONG NAME - Band Name
-------------------------------------------------------------------------------
Tabbed by:Kingbabyduck
Email:

Listen to the song to get the timing.  It's not too hard.  I think most of it is correct,
I was watching a video of Casey here http://www.youtube.com/watch?v=1it_tIOuICQ.  In the video he
has it tuned down half a step, but you kinda see the chords he is playing.  Since it is based
off of him playing it acoustically, it's more of an acoustical interpretation of the song
and is a good reference for the strumming pattern.  The strumming is mostly correct (I think)
but you can add in some extra strums and mutes (which I didn't put in).  The order of the pieces
are at the bottom. Please don't hesitate to correct me and I'll make the necessary changes.

Tuning:Dropped D

Intro

      D    D    U    D    U    D    D    D
e|--------------------------------------------|
B|----12---12---12---12---12---12---10---8----|
G|----9----9----9----9----9----9----9----9----|
D|----10---10---10---10---10---10---10---10---|
A|----0----0----0----0----0----0----0----0----|
D|--------------------------------------------|

      D    D    U    D    U    D    D    D
e|--------------------------------------------|
B|----5----5----5----5----5----5----5----5----|
G|----5----5----5----5----5----5----7----5----|
D|----7----7----7----7----7----7----7----7----|
A|----0----0----0----0----0----0----0----0----|
D|--------------------------------------------|

      D    D    U    D    U    D    D    D
e|--------------------------------------------|
B|----6----6----6----6----6----6----6----6----|
G|----6----6----6----6----6----6----6----6----|
D|----7----7----7----7----7----7----7----7----|
A|----0----0----0----0----0----0----0----0----|
D|----0----0----0----0----0----0----0----0----|


      D    D    U    D    U    D    D    D
e|--------------------------------------------|
B|----7----7----7----7----7----7----7----7----|
G|----5----5----5----5----5----5----5----5----|
D|----7----7----7----7----7----7----7----7----|
A|----0----0----0----0----0----0----0----0----|
D|----0----0----0----0----0----0----0----0----|

Verse

      D    D    U    D    U    D    D    D    D    D    U    D    U    D    D    D
e|------------------------------------------------------------------------------------|
B|----5----5----5----5----5----5----5----5----5----5----5----5----5----5----5----5----|
G|----5----5----5----5----5----5----5----5----5----5----5----5----5----5----5----5----|
D|----7----7----7----7----7----7----7----7----7----7----7----7----7----7----7----7----|
A|----0----0----0----0----0----0----0----0----0----0----0----0----0----0----0----0----|
D|------------------------------------------------------------------------------------|

      D    D    U    D    U    D    D    D    D    D    U    D    U    D    D    D
e|------------------------------------------------------------------------------------|
B|----5----5----5----5----5----5----5----5----5----5----5----5----5----5----5----5----|
G|----5----5----5----5----5----5----5----5----5----5----5----5----5----5----5----5----|
D|----6----6----6----6----6----6----6----6----6----6----6----6----6----6----6----6----|
A|----0----0----0----0----0----0----0----0----0----0----0----0----0----0----0----0----|
D|------------------------------------------------------------------------------------|


      D    D    U    D    U    D    D    D    D    D    U    D    U    D    D    D
e|------------------------------------------------------------------------------------|
B|----5----5----5----5----5----5----5----5----5----5----5----5----5----5----5----5----|
G|----5----5----5----5----5----5----5----5----5----5----5----5----5----5----5----5----|
D|----5----5----5----5----5----5----5----5----5----5----5----5----5----5----5----5----|
A|----0----0----0----0----0----0----0----0----0----0----0----0----0----0----0----0----|
D|------------------------------------------------------------------------------------|

      D    D    U    D    U    D    D    D
e|--------------------------------------------|
B|----5----5----5----5----5----5----5----5----|
G|----5----5----5----5----5----5----5----5----|
D|----4----4----4----4----4----4----4----4----|
A|----5----5----5----5----5----5----5----5----|
D|--------------------------------------------|

      D    D    U    D    U    D    D    U    D    U
e|----0----0----0----0----0----0----0----0----0----0----|
B|----1----1----1----1----1----3----3----3----3----3----|
G|----2----2----2----2----2----1----1----1----1----1----|
D|----3----3----3----3----3----0----0----0----0----0----|
A|----0----0----0----0----0----2----2----2----2----2----|
D|-----------------------------0----0----0----0----0----|

Pre-Chorus

      D    D    U    D    U    D    D    U    D    U
e|------------------------------------------------------|
B|------------------------------------------------------|
G|------------------------------------------------------|
D|-----------------------------7----7----7----7----7----|
A|----7----7----7----7----7----7----7----7----7----7----|
D|----6----6----6----6----6----7----7----7----7----7----|

      D    D    U    D    U    D    D    U    D    U
e|------------------------------------------------------|
B|------------------------------------------------------|
G|----5----5----5----5----5////9----9----9----9----9----|
D|----x----x----x----x----x////x----x----x----x----x----|
A|----3----3----3----3----3////7----7----7----7----7----|
D|------------------------------------------------------|

      D    D    U    D    U    D    D    U    D    U
e|------------------------------------------------------|
B|------------------------------------------------------|
G|------------------------------------------------------|
D|----7----7----7----7----7----7----7----7----7----7----|
A|----8----8----8----8----8----9----9----9----9----9----|
D|------------------------------------------------------|


      D    D    U    D    U    D    D    U    D    U
e|------------------------------------------------------|
B|------------------------------------------------------|
G|------------------------------------------------------|
D|----9----9----9----9----9----9----9----9----9----9----|
A|----10---10---10---10---10---11---11---11---11---11---|
D|------------------------------------------------------|

Chorus

      D    D    U    D    U    D    D    U    D    U
e|----0----0----0----0----0----0----0----0----0----0----|
B|----1----1----1----1----1----1----1----1----1----1----|
G|----2----2----2----2----2----2----2----2----2----2----|
D|----2----2----2----2----2----2----2----2----2----2----|
A|----0----0----0----0----0----0----0----0----0----0----|
D|------------------------------------------------------|

      D    D    U    D    U    D    D    U    D    U
e|----0----0----0----0----0----0----0----0----0----0----|
B|----1----1----1----1----1----1----1----1----1----1----|
G|----2----2----2----2----2----2----2----2----2----2----|
D|----2----2----2----2----2----2----2----2----2----2----|
A|----0----0----0----0----0----0----0----0----0----0----|
D|------------------------------------------------------|

      D    D    U    D    U    D    D    U    D    U
e|----1----1----1----1----1----1----1----1----1----1----|
B|----3----3----3----3----3----3----3----3----3----3----|
G|----2----2----2----2----2----2----2----2----2----2----|
D|----0----0----0----0----0----0----0----0----0----0----|
A|----0----0----0----0----0----0----0----0----0----0----|
D|----0----0----0----0----0----0----0----0----0----0----|

      D    D    U    D    U    D    D    U    D    U
e|----2----2----2----2----2----2----2----2----2----2----|
B|----1----1----1----1----1----1----1----1----1----1----|
G|----2----2----2----2----2----2----2----2----2----2----|
D|----0----0----0----0----0----0----0----0----0----0----|
A|----0----0----0----0----0----0----0----0----0----0----|
D|----0----0----0----0----0----0----0----0----0----0----|

Interlude

      D    D    U    D    U    D    D    U    D    U
e|------------------------------------------------------|
B|----5----5----5----5----5----6----6----6----8----8----|
G|----5----5----5----5----5----5----5----5----5----5----|
D|----6----6----6----6----6----6----6----6----6----6----|
A|------------------------------------------------------|
D|------------------------------------------------------|

      D    D    U    D    U    D    D    U    D    U
e|------------------------------------------------------|
B|----5----5----5----5----5----8----8----8----6----6----|
G|----5----5----5----5----5----5----5----5----5----5----|
D|----6----6----6----6----6----5----5----5----5----5----|
A|------------------------------------------------------|
D|------------------------------------------------------|

      D    D    U    D    U    D    D    U    D    U
e|-----------------------------5----5----5----5----5----|
B|----5----5----5----5----5----6----6----6----6----6----|
G|----5----5----5----5----5----7----7----7----7----7----|
D|----6----6----6----6----6----7----7----7----7----7----|
A|-----------------------------5----5----5----5----5----|
D|------------------------------------------------------|

      D    D    U    D    U    D    D    U    D    U
e|----0----0----0----0----0----0----0----0----0----0----|
B|----1----1----1----1----1----3----3----3----3----3----|
G|----2----2----2----2----2----1----1----1----1----1----|
D|----3----3----3----3----3----0----0----0----0----0----|
A|----0----0----0----0----0----2----2----2----2----2----|
D|-----------------------------0----0----0----0----0----|

Interlude #2

      D    D    U    D    U    D    D    U    D    U
e|----0----0----0----0----0----0----0----0----0----0----|
B|----1----1----1----1----1----3----3----3----3----3----|
G|----2----2----2----2----2----1----1----1----1----1----|
D|----3----3----3----3----3----0----0----0----0----0----|
A|----0----0----0----0----0----2----2----2----2----2----|
D|-----------------------------0----0----0----0----0----|

      D    D    U    D    U    D    D    U    D    U
e|----0----0----0----0----0----2----2----2----2----2----|
B|----1----1----1----1----1----1----1----1----1----1----|
G|----0----0----0----0----0----2----2----2----2----2----|
D|----2----2----2----2----2----0----0----0----0----0----|
A|----0----0----0----0----0----0----0----0----0----0----|
D|------------------------------------------------------|

      D    D    U    D    U    D    D    U    D    U
e|----0----0----0----0----0----0----0----0----0----0----|
B|----1----1----1----1----1----3----3----3----3----3----|
G|----2----2----2----2----2----1----1----1----1----1----|
D|----3----3----3----3----3----0----0----0----0----0----|
A|----0----0----0----0----0----2----2----2----2----2----|
D|-----------------------------0----0----0----0----0----|

      D    D    U    D    U    D    D    U    D    U
e|----0----0----0----0----0----2----2----2----2----2----|
B|----1----1----1----1----1----1----1----1----1----1----|
G|----0----0----0----0----0----2----2----2----2----2----|
D|----2----2----2----2----2----0----0----0----0----0----|
A|----0----0----0----0----0----0----0----0----0----0----|
D|------------------------------------------------------|

      D    D    U    D    U    D    D    U    D    U
e|----0----0----0----0----0----0----0----0----0----0----|
B|----1----1----1----1----1----3----3----3----3----3----|
G|----2----2----2----2----2----1----1----1----1----1----|
D|----3----3----3----3----3----0----0----0----0----0----|
A|----0----0----0----0----0----2----2----2----2----2----|
D|-----------------------------0----0----0----0----0----|

      D    D    U    D    U    D    D    U    D    U
e|----------------------------------x----x----x----x----|
B|----------------------------------x----x----x----x----|
G|----2----2----2----2----2----2----x----x----x----x----|
D|----1----1----1----1----1----1----x----x----x----x----|
A|----2----2----2----2----2----2----x----x----x----x----|
D|----2----2----2----2----2---------x----x----x----x----|

Interlude #3

      D    D    U    D    U    D    D    U    D    U
e|----0----0----0----0----0----0----0----0----0----0----|
B|----1----1----1----1----1----1----1----1----1----1----|
G|----2----2----2----2----2----2----2----2----2----2----|
D|----2----2----2----2----2----2----2----2----2----2----|
A|----0----0----0----0----0----0----0----0----0----0----|
D|------------------------------------------------------|

      D    U    D    U    D    U    D    U    D    U
e|----0----0----0----0----0----0----0----0----1----1----|
B|----1----1----1----1----1----1----1----1----3----3----|
G|----2----2----2----2----2----2----2----2----2----2----|
D|----2----2----0----0----0----0----0----0----0----0----|
A|----0----0----0----0----3----3----0----0----0----0----|
D|------------------------------------------------------|

      D    D    U    D    U    D    D    U    D    U
e|----0----0----0----0----0----0----0----0----0----0----|
B|----1----1----1----1----1----1----1----1----1----1----|
G|----2----2----2----2----2----2----2----2----2----2----|
D|----3----3----3----3----3----3----3----3----3----3----|
A|----0----0----0----0----0----0----0----0----0----0----|
D|------------------------------------------------------|


      D    D    U    D    U    D    D    U    D    U
e|----0----0----0----0----0----0----0----0----0----0----|
B|----1----1----1----1----1----3----3----3----3----3----|
G|----2----2----2----2----2----1----1----1----1----1----|
D|----3----3----3----3----3----0----0----0----0----0----|
A|----0----0----0----0----0----2----2----2----2----2----|
D|-----------------------------0----0----0----0----0----|

Interlude #4

      D    D    U    D    U    D    D    U    D    U
e|----0----0----0----0----0----0----0----0----0----0----|
B|----1----1----1----1----1----1----1----1----1----1----|
G|----2----2----2----2----2----2----2----2----2----2----|
D|----2----2----2----2----2----2----2----2----2----2----|
A|----0----0----0----0----0----0----0----0----0----0----|
D|------------------------------------------------------|

      D    D    U    D    U    D    D    U    D    U
e|----0----0----0----0----0----1----1----1----1----1----|
B|----1----1----1----1----1----3----3----3----3----3----|
G|----2----2----2----2----2----2----2----2----2----2----|
D|----2----2----2----2----2----0----0----0----0----0----|
A|----0----0----0----0----0----0----0----0----0----0----|
D|------------------------------------------------------|

      D    D    U    D    U    D    D    U    D    U
e|----0----0----0----0----0----0----0----0----0----0----|
B|----1----1----1----1----1----1----1----1----1----1----|
G|----2----2----2----2----2----2----2----2----2----2----|
D|----3----3----3----3----3----3----3----3----3----3----|
A|----0----0----0----0----0----0----0----0----0----0----|
D|------------------------------------------------------|


      D    D    U    D    U    D    D    U    D    U
e|----0----0----0----0----0----0----0----0----0----0----|
B|----1----1----1----1----1----3----3----3----3----3----|
G|----2----2----2----2----2----1----1----1----1----1----|
D|----3----3----3----3----3----0----0----0----0----0----|
A|----0----0----0----0----0----2----2----2----2----2----|
D|-----------------------------0----0----0----0----0----|


Intro X2
Verse X2
Pre-Chorus
Chorus X2
Interlude X2
Interlude #2
Chorus X2
Interlude #3
Interlude #4 X4

************************************

| D   strum down
| U   strum up
| /   slide up
| \   slide down
| h   hammer-on
| p   pull-off
| ~   vibrato
| +   harmonic
| x   Mute note
| b   Bend
| pb  Pre-bend
| br  Bend release
| pbr Pre-bend release
| brb Bend release bend

************************************
Добавлено: 06.05.2012
Другие материалы по этой песне:
  • Аккорды и текст

Страница создана 03.05.2012
http://primanota.ru/the-dear-hunter/the-church-and-the-dime-chords.htm
Привет, Гость.
Предлагаем пройти революционный курс по гитаре.
Подарок от PrimaNota.Ru, забирай!