PrimaNota.ru - самый крупный в мире бесплатный архив песенных текстов, аккордов, табулатур и нот


The Dear Hunter - Stuck On A Wire Out On A Fence - таба, видео

Регистрация Запомнить меня
Войти через:  Facebook Google Twitter Vk Yandex Mail.ru

The Dear Hunter - Stuck On A Wire Out On A Fence - таба, видео

Печатать
Просмотров: 83
Уроки эстрадного вокала в Санкт-Петербурге
Stuck on a Wire Out on a Fence- The Dear Hunter

Tabbed By: Nate H
E-Mail: nhaas@hilbert.edu

This song is off of the Orange EP of The Color Spectrum.

Standard Tuning: (E-b-g-d-a-e)
| / slide up
| h hammer-on
| p pull-off
| ~ vibrato
| 0 play open string
| b^ bend up
| * let ring
| x mute string

From what I have so far, the song seems pretty easy. I haven't figured out the bridge 
but the rest of the song I'm pretty confident about. Enjoy.

Intro (0:00-0:09)
e|-----------------------------------------------------------------------------|
B|-------------- 555/7---------------------------------------------------------|
G|---4/66-4/66--555/7----------------------------------------------------------|
D|---5/77-5/77--555/7----------------------------------------------------------| 2x
A|---5/77-5/77--333/5----------------------------------------------------------|
E|---3/55 3/55-----------------------------------------------------------------|

Verse (0:09-0:30)
Listen to the song for timing.
e|-----------------------------------------------------------------------------|
B|-----------------------------  5555--7777------------------------------------|
G|----4/66--4/66---4/66--4/66--5555--7777--------------------------------------| 3x
D|----5/77--5/77---5/77--5/77--5555--7777--------------------------------------|
A|----5/77- 5/77---5/77--5/77--3333--5555--------------------------------------|
E|----3/55--3/55---3/55--3/55--------------------------------------------------|

Chorus (0:30-0:50)
e|-----------------------------------------------------------------------------|
B|--555-7-777-9----------------------------------------------------------------|
G|--555-7-777-9-6-6-6-6--------------------------------------------------------|
D|--555-7-777-9-7-7-7-7--------------------------------------------------------| 3x
A|--333-5-555-7-7-7-7-7--------------------------------------------------------|
E|---------------5-5-5-5-------------------------------------------------------|
*Let A chord ring on last time.

Verse 2 (0:50-1:15)
Listen to the song for timing.
e|--------------------------------------------------------------------------------|
B|---------------- 555-7-------------- 555-7--5555-7777---------------------------|
G|----4/66--4/66--555-7--4/66--4/66--555-7--5555-7777-----------------------------| 3x
D|----5/77--5/77--555-7--5/77--5/77--555-7--5555-7777-----------------------------|
A|----5/77--5/77--333-5--5/77--5/77--333-5--3333-5555-----------------------------|
E|----3/55--3/55----------3/55--3/55----------------------------------------------|


Chorus (1:15-1:30)
e|-----------------------------------------------------------------------------|
B|--555-7-777-9----------------------------------------------------------------|
G|--555-7-777-9-6-6-6-6--------------------------------------------------------|
D|--555-7-777-9-7-7-7-7--------------------------------------------------------| 3x
A|--333-5-555-7-7-7-7-7--------------------------------------------------------|
E|---------------5-5-5-5-------------------------------------------------------|
*Let A chord ring on last time.


Bridge (1:16-2:33)
**I have not figured out the bridge yet. I'm working it out right now.

Chorus (2:34-2:49)
e|------------------------------------------------------------------------------|
B|--555-7-777-9-----------------------------------------------------------------|
G|--555-7-777-9-6-6-6-6---------------------------------------------------------|
D|--555-7-777-9-7-7-7-7---------------------------------------------------------| 3x
A|--333-5-555-7-7-7-7-7---------------------------------------------------------|
E|---------------5-5-5-5--------------------------------------------------------|
*Let A chord ring on last time.


Intro (2:50-3:05)
e|-------------------------------------------------------------------------------|
B|-------------- 555/7-----------------------------------------------------------|
G|---4/66-4/66--555/7------------------------------------------------------------|
D|---5/77-5/77--555/7------------------------------------------------------------| 3x
A|---5/77-5/77--333/5------------------------------------------------------------|
E|---3/55  3/55------------------------------------------------------------------|
*Last time instead of ending on the D chord, end on an A chord.
Добавлено: 28.08.2013
Другие материалы по этой песне:
  • Аккорды и текст

Страница создана 28.08.2013
http://primanota.ru/the-dear-hunter/stuck-on-a-wire-out-on-a-fence-chords.htm
Привет, Гость.
Предлагаем пройти революционный курс по гитаре.
Подарок от PrimaNota.Ru, забирай!