PrimaNota.ru - самый крупный в мире бесплатный архив песенных текстов, аккордов, табулатур и нот


The Dear Hunter - Bring You Down - таба, видео

Регистрация Запомнить меня
Войти через:  Facebook Google Twitter Vk Yandex Mail.ru

The Dear Hunter - Bring You Down - таба, видео

Печатать
Просмотров: 70
Artist: The Dear Hunter
Album: Migrant
Song: Bring You Down
Tabbed By: A Dead Fly

0:15 when strings harmonize (Guitar 1 only)

e|-9--------------|
B|-9--------------|
G|-11-------------|
D|-11-------------|
A|-9--------------|
E|----------------|

0:22 - 1:15 (Guitar 1 only)

   F#add9           G#madd9
e|--------4-------|--------6-------|
B|----------------|----------------|
G|----------------|----------------| Repeat as
D|----------------|----------------| necessary
A|----4-----------|----------------|
E|-2--------------|-4--------------|

1:15 - 1:35

Guitar 1
   F#add9           G#madd9
e|--------4-------|--------6-------|
B|----------------|----------------|
G|----------------|----------------| Repeat as
D|----------------|----------------| necessary
A|----4-----------|-6--------------|
E|-2--------------|-4--------------|

Guitar 2 
                           Fade in
e|----------------|--------4<<<----|
B|-0--0--0--0--0--|--------4<<<----|
G|--3--3--3--3--3-|--------1<<<----| Repeat as
D|4--4--4--4--4--4|----------------| necessary
A|----------------|----------------|
E|----------------|----------------|

1:35 - 1:47

Guitar 1
   F#sus2                 G#sus2      G#7sus2  F#                     G#m          
e|-9----9----9--9--9--9-|-11---11---11-11----|-9----9----9--9--9--9-|-11---11---11-11----|
B|-9----9----9--9--9--9-|-11---11---11-11----|-11---11---11-11-11-11|-12---12---12-12----|
G|-11---11---11-11-11-11|-13---13---13-11----|-11---11---11-11-11-11|-13---13---13-13----|
D|-11---11---11-11-11-11|-13---13---13-13----|-11---11---11-11-11-11|-13---13---13-13----|
A|-9----9----9--9--9--9-|-11---11---11-11----|-9----9----9--9--9--9-|-11---11---11-11----|
E|----------------------|--------------------|----------------------|--------------------|

Guitar 2

e|-----------7--6-------|--------------------|-----------7--6-------|--------------------|
B|-7------------------7-|--------------7-----|-7------------------7-|--------------------|
G|------6----------8----|-8------------8-----|------6----------8----|-8------------------|
D|----------------------|--------------------|----------------------|--------------------|
A|----------------------|--------------------|----------------------|--------------------|
E|----------------------|--------------------|----------------------|--------------------|

1:47 - 2:00 (Guitar 1 Only)

   F#add9           G#madd9
e|--------4-------|--------6-------|
B|----------------|----------------|
G|----------------|----------------| Repeat as
D|----------------|----------------| necessary
A|----4-----------|-6--------------|
E|-2--------------|-4--------------|

2:00 - 2:13

Guitar 1 continues playing same thing

Guitar 2
   F#sus2           G#sus2
e|-9--------------|-11-------------|
B|-9--------------|-11-------------|
G|-11-------------|-13-------------| Play 2X
D|-11-------------|-13-------------|
A|-9--------------|-11-------------|
E|----------------|----------------|

2:13 - 2:33

Guitar 1
   B7M              F#7M             B7M              C#
e|-11-----11------|-6------6-------|-11------11-----|-9-------9------|
B|-11-----11------|-6------6-------|-11------11-----|-9-------9------|
G|-11-----11------|-6------6-------|-11------11-----|-10------10-----|
D|-13-----13------|-8------8-------|-13------13-----|-11------11-----|
A|-14-----14------|-9------9-------|-14------14-----|-11------11-----|
E|----------------|----------------|----------------|-9-------9------|

   G#m              B7M
e|-11-----11------|-11-----11------|
B|-12-----12------|-11-----11------|
G|-13-----13------|-11-----11------|
D|-13-----13------|-13-----13------|
A|-11-----11------|-14-----14------|
E|----------------|----------------|

Guitar 2

e|----14------14--|-16--16--16--16-|
B|-16--16--16--16-|----18------18--|
G|----------------|----------------| Play 2X
D|----------------|----------------|
A|----------------|----------------|
E|----------------|----------------|

e|----14------14--|----14------14--|
B|-16--16--16--16-|-16--16--16--16-| Play 1X
G|----------------|----------------|
D|----------------|----------------|
A|----------------|----------------|
E|----------------|----------------|

2:33 - 2:45

Guitar 1
   F#sus2                 G#sus2      G#7sus2  F#                     G#m          
e|-9----9----9--9--9--9-|-11---11---11-11----|-9----9----9--9--9--9-|-11---11---11-11----|
B|-9----9----9--9--9--9-|-11---11---11-11----|-11---11---11-11-11-11|-12---12---12-12----|
G|-11---11---11-11-11-11|-13---13---13-11----|-11---11---11-11-11-11|-13---13---13-13----|
D|-11---11---11-11-11-11|-13---13---13-13----|-11---11---11-11-11-11|-13---13---13-13----|
A|-9----9----9--9--9--9-|-11---11---11-11----|-9----9----9--9--9--9-|-11---11---11-11----|
E|----------------------|--------------------|----------------------|--------------------|

Guitar 2

e|-----------7--6-------|------------11-11-11--|
B|-7------------------7-|-----------14-14-14---|
G|------6----------8----|-8--------------------| Play 2X
D|----------------------|----------------------|
A|----------------------|----------------------|
E|----------------------|----------------------|

2:45 - 2:58

Guitar 1

Hit Chord once each word Casey says and switch halfway through
   B7M              D#m
e|-6--------------|-6--------------|
B|-7--------------|-7--------------|
G|-8--------------|-8--------------|
D|-9--------------|-8--------------|
A|----------------|-6--------------|
E|----------------|----------------|

Guitar 2

e|-11-------------|----------------|-------|
B|-----14--11-----|-11--14--11-----|-11----|
G|-------------11-|-------------11-|----11-|
D|----------------|----------------|-------|
A|----------------|----------------|-------|
E|----------------|----------------|-------|

e|----------------|-----11--9------|-9--11-|
B|-11--9----------|-------------11-|-------|
G|---------11--10-|-8--------------|-------|
D|----------------|----------------|-------|
A|----------------|----------------|-------|
E|----------------|----------------|-------|

2:58 - 3:05

Guitar 1
    F#7M
e|--9---9---------|
B|--11--11--------|
G|--10--10--------| Repeat as necessary
D|--11--11--------| follows Casey's vocals
A|--9---9---------|
E|--9---9---------|

Guitar 2

e|-9------9-----|-9----------------|
B|---11-----11--|---11--9--7--9-11-|
G|--------------|------------------|
D|--------------|------------------|
A|--------------|------------------|
E|--------------|------------------|

3:05 - 3:18

Guitar 1

Hit Chord once each word Casey says and switch halfway through
   B7M              D#m
e|-6--------------|-6--------------|
B|-7--------------|-7--------------|
G|-8--------------|-8--------------|
D|-9--------------|-8--------------|
A|----------------|-6--------------|
E|----------------|----------------|

Guitar 2

e|-11-------------|----------------|-------|
B|-----14--11-----|-11--14--11-----|-11----|
G|-------------11-|-------------11-|----11-|
D|----------------|----------------|-------|
A|----------------|----------------|-------|
E|----------------|----------------|-------|

e|----------------|-----11--9------|-9--11-|
B|-11--9----------|-------------11-|-------|
G|---------11--10-|-8--------------|-------|
D|----------------|----------------|-------|
A|----------------|----------------|-------|
E|----------------|----------------|-------|

3:18 - 3:31

Guitar 1
    F#7M
e|--9---9---------|
B|--11--11--------|
G|--10--10--------| Repeat as necessary
D|--11--11--------| follows Casey's vocals
A|--9---9---------|
E|--9---9---------|

then end on
   G#m       
e|-4-----------11-|
B|-4-----------12-|
G|-4-----------13-|
D|-6-----------13-|
A|-6-----------11-|
E|-4--------------|

3:31 - 3:51

Guitar 1
   B7M              F#7M             B7M              C#
e|-11-----11------|-6------6-------|-11------11-----|-9-------9------|
B|-11-----11------|-6------6-------|-11------11-----|-9-------9------|
G|-11-----11------|-6------6-------|-11------11-----|-10------10-----|
D|-13-----13------|-8------8-------|-13------13-----|-11------11-----|
A|-14-----14------|-9------9-------|-14------14-----|-11------11-----|
E|----------------|----------------|----------------|-9-------9------|

   G#m              B7M
e|-11-----11------|-11-----11------|
B|-12-----12------|-11-----11------|
G|-13-----13------|-11-----11------|
D|-13-----13------|-13-----13------|
A|-11-----11------|-14-----14------|
E|----------------|----------------|

Guitar 2

e|----14------14--|-16--16--16--16-|
B|-16--16--16--16-|----18------18--|
G|----------------|----------------| Play 2X
D|----------------|----------------|
A|----------------|----------------|
E|----------------|----------------|

e|----14------14--|----14------14--|
B|-16--16--16--16-|-16--16--16--16-| Play 1X
G|----------------|----------------|
D|----------------|----------------|
A|----------------|----------------|
E|----------------|----------------|

3:51 - End


Guitar 1
   F#sus2                 G#sus2      G#7sus2  F#                     G#m          
e|-9----9----9--9--9--9-|-11---11---11-11----|-9----9----9--9--9--9-|-11---11---11-11----|
B|-9----9----9--9--9--9-|-11---11---11-11----|-11---11---11-11-11-11|-12---12---12-12----| Play
G|-11---11---11-11-11-11|-13---13---13-11----|-11---11---11-11-11-11|-13---13---13-13----| X2
D|-11---11---11-11-11-11|-13---13---13-13----|-11---11---11-11-11-11|-13---13---13-13----|
A|-9----9----9--9--9--9-|-11---11---11-11----|-9----9----9--9--9--9-|-11---11---11-11----|
E|----------------------|--------------------|----------------------|--------------------|

Guitar 2

Guitar 2

e|-----------7--6-------|------------11-11-11--|
B|-7------------------7-|-----------14-14-14---|
G|------6----------8----|-8--------------------| Play 4X
D|----------------------|----------------------|
A|----------------------|----------------------|
E|----------------------|----------------------|
Добавлено: 12.06.2013
Другие материалы по этой песне:
  • Аккорды и текст

Страница создана 12.06.2013
http://primanota.ru/the-dear-hunter/bring-you-down-chords.htm
Привет, Гость.
Предлагаем пройти революционный курс по гитаре.
Подарок от PrimaNota.Ru, забирай!