PrimaNota.ru - самый крупный в мире бесплатный архив песенных текстов, аккордов, табулатур и нот


The Dear Hunter - The Bitter Suite Iv And V The Congregation And The Sermon In The Silt - бас-таба, видео

Регистрация Запомнить меня
Войти через:  Facebook Google Twitter Vk Yandex Mail.ru

The Dear Hunter - The Bitter Suite Iv And V The Congregation And The Sermon In The Silt - бас-таба, видео

Печатать
Просмотров: 76
Уроки эстрадного вокала в Санкт-Петербурге
The Bitter Suite IV and V: The Congregation and the Sermon in the Silt
The Dear Hunter
Act IV: Rebirth in Reprise
Tabbed by: fender4string

Rest until 0:25

Verse 1
"They come in crowds to hear him speak..."
G------------------------------------------------------------------------
D-------------------------------8-9---------12---11-10-9----9-----12-13--
A-8---------8-----------8-10-11--------11----------------------11--------
E------8----------8---8--------------------------------------------------

"...distance in this instance you're a stranger..."
G--------------------------------------------------------------------------
D-10----------------------------------------------11---10-9-8--------8-11--
A--------10----------------------------8-9---------------------9--11-------
E---------------11--10-9-8-----8-10-11---------9---------------------------

"Commanding listeners to believe..."
G-------------------------------------------------------------------------
D------------------------------8-9----------12---11-10-9----9------12-13--
A------8---------------8-10-11---------11-----------------------11--------
E-8---------8-----1--8----------------------------------------------------

"He'll take the stage and leave..."
G-------------------------------------------------------------------------
D-10----------------------------------------------10-9-8-----------8-11---
A------10---------------------------8-9----------------------9--11--------
E------------11--10-9-8-----8-10-11------9------9-------------------------

Bridge 1
"So father won't you tend your flock..."
G----------------------------------------------------------------------------------
D----------------------------------------------------------------------------------
A-------------------------3-------------4-----------1----------3---------------3-3-
E-1-----------4--------------------------------------------------------------------

Verse 2
Repeat X3
G-------------------------------------3h5-3------------------------------------------------
D-3----------3--5-6--5-3---3-3---3-3--------6-5-3------------------------------------------
A-------3----------------------3------------------3-4---------4----------4----------3------
E--------------------------------------------------------4---------4----------4----------3-

"I swear you'll get what you need...
G------------------------------------3h5-3------------------------------------------------
D-3----------3--5-6--5-3---3-3---3-3-------6-5-3------------------------------------------
A-------3----------------------3-----------------3-4---------4----------4---------3-3-----
E-------------------------------------------------------4---------4----------4--------4-3-

Chorus
G------------------------------------------------------------------------
D------3-----------------------------------3------------------0-1---1-0--
A-1--------1-1---------3--------------1----------1-1---------3----1------
E--------------4-3-1--------1-1-3-4------------------4-3-1-4-------------

G---------------------------------------------------------------------------------------------
D------3-----------------------------------3--------------------------------------------------
A-1--------1-1---------3--------------1----------1-1---------------3---------4---3--------3-3-
E--------------4-3-1--------1-1-3-4------------------4-3-1----4---------4-6-------------------

Verse 2 X3 (No variations)

Chorus (No variations)

Bridge 2

X2
G--------------------------------------------------------------------------------------------
D--------------------------------------------------------------------------------------------
A--------------------------------------------------------------------------------------------
E-0----0----1----1----0----0----1----1----0----0----1----1----0----0----1----1-----

G-5------------8----------------------------------------------------------
D-------3-------------6---------------------------------------------------
A----------------------------------------------------------3-3-3-3--------
E--------------------------0-0-0-0-1-1-1-1-3-3-3-3-4-4-4-4---------1------


Chorus (No Variations save an extra Db to C at the end)

Verse 1 Reprise
G-------------------------------------------------------------------------
D------------------------------8-9------------12---11-10-9----9----12-13--
A-8---------8----------8-10-11---------11------------------------11-------
E------8---------8---8----------------------------------------------------

G-----------------------------------------------------------------------------------
D-10--------------------------------------------------------------------------------
A------10--------------------------8-9---------9---------9-----------9--------------
E-----------11--10-9-8-----8-10-11--------9---------9----------9--------------------



Добавлено: 02.04.2016
Другие материалы по этой песне:
  • Аккорды и текст

Страница создана 02.04.2016
http://primanota.ru/the-dear-hunter/bitter-suite-iv-and-v-congregation-and-sermon-in-silt-chords.htm
Привет, Гость.
Предлагаем пройти революционный курс по гитаре.
Подарок от PrimaNota.Ru, забирай!