PrimaNota.ru - самый крупный в мире бесплатный архив песенных текстов, аккордов, табулатур и нот


The Deadly Syndrome - Deer Trail Place - таба, видео

Регистрация Запомнить меня
Войти через:  Facebook Google Twitter Vk Yandex Mail.ru

The Deadly Syndrome - Deer Trail Place - таба, видео

Печатать
Просмотров: 70
-------------------------------------------------------------------------------
                        DEER TRAIL PLACE - The Deadly Syndrome
-------------------------------------------------------------------------------
Tabbed by: Lach_101
Standard Tuning

I requested this tab for a while, but no one responded so I decided to give it a shot. Pretty simple stuff,
but would really appreciate it if someone could work out the chorus and chords. Thanks :)

e|---------------------------------------------------------------------------|
B|---------0---0--0--0---0---0--0--0--0-0--0--0---0--0--0-0--0---------------|
G|---------------------------------------------------------------------------|
D|---------------------------------------------------------------------------|
A|---------------------------------------------------------------------------|
E|---------------------------------------------------------------------------|

e|---------------------------------------------------------------------------|
B|---------------------------------------------------------------------------|
G|---------------------------------------------------------------------------|
D|-------9-----7-------------------------------------------------------------|
A|-------------------9-----7-----5-----7-------------------------------------|
E|-------------------------------------------7-----7-------------------------|

e|---------------------------------------------------------------------------|
B|---------------------------------------------------------------------------|
G|---------------------------------------------------------------------------|
D|--9-----7------------------------------------------------------------------|
A|-------------9-----7-----5-----7-----------------9p7-----5-----7-----9-----|
E|--------------------------------------7-----7----------------------------7~|

e|---------------------------------------------------------------------------|
B|---------------------------------------------------------------------------|
G|---------------------------------------------------------------------------|
D|-------9-----7-------------------------------------------------------------|
A|-------------------9-----7-----5-----7-------------------------------------|
E|-------------------------------------------7-----7-------------------------|

e|---------------------------------------------------------------------------|
B|---------------------------------------------------------------------------|
G|---------------------------------------------------------------------------|
D|--9-----7------------------------------------------------------------------|
A|-------------9-----7-----5-----7---------------9p7-----5--5---7-----9----9-|
E|--------------------------------------7---7--------------------------------|

e|---------------------------------------------------------------------------|
B|---------------------------------------------------------------------------|
G|---------------------------------------------------------------------------|
D|-------9-----7-------------------------------------------------------------|
A|-------------------9-----7-----5-----7-------------------------------------|
E|-------------------------------------------7-----7-------------------------|

e|---------------------------------------------------------------------------|
B|---------------------------------------------------------------------------|
G|---------------------------------------------------------------------------|
D|-------9-----7-------------------------------------------------------------|
A|-------------------9-----7-----5-----7-------------------------------------|
E|-------------------------------------------7-----7-------------------------|

e|---------------------------------------------------------------------------|
B|---------------------------------------------------------------------------|
G|---------------------------------------------------------------------------|
D|-------9-----7-------------------------------------------------------------|
A|-------------------9-----7-----5-----7-------------------------------------|
E|-------------------------------------------7-----7-------------------------|


e|---------------------------------------------------------------------------|
B|---------------------------------------------------------------------------|
G|--------------------------------------7------9/11-------9---------7--------|
D|-------9-----7-----------7-----9-------------------------------------------|
A|-------------------9-------------------------------------------------------|
E|---------------------------------------------------------------------------|


(chorus)

Thanks


************************************

| /   slide up
| \   slide down
| h   hammer-on
| p   pull-off
| ~   vibrato
| +   harmonic
| x   Mute note
| b   Bend
| pb  Pre-bend
| br  Bend release
| pbr Pre-bend release
| brb Bend release bend

************************************
Добавлено: 21.06.2016
Другие материалы по этой песне:
  • Аккорды и текст

Страница создана 21.06.2016
http://primanota.ru/the-deadly-syndrome/deer-trail-place-chords.htm
Привет, Гость.
Предлагаем пройти революционный курс по гитаре.
Подарок от PrimaNota.Ru, забирай!