PrimaNota.ru - самый крупный в мире бесплатный архив песенных текстов, аккордов, табулатур и нот


The Dead Revolt - Half-plant Half-ghost - таба, видео

Регистрация Запомнить меня
Войти через:  Facebook Google Twitter Vk Yandex Mail.ru

The Dead Revolt - Half-plant Half-ghost - таба, видео

Печатать
Просмотров: 82

Main riff (0:00 - 1:03)

E|-----5-------8----3-----5-------8-----10---------|
B|---3--3-----6----1----3--3-----6-----8-----------|
G|--0-0--0---0----0----0-0--0---0-----0------------|
D|-5------5-8----3----5------5-8----10-------------|
A|-------------------------------------------------|
E|-------------------------------------------------|



End riff (1:03 - 1:08)

E|-----5-------3-----------------------------------|
B|---3--3-----1------------------------------------|
G|--0-0--0---0--0----------------------------------|
D|-5------5-3--------------------------------------|
A|-------------------------------------------------|
E|-------------------------------------------------|



___________________________________________________________




Chorus (1:08 - 1:24)

E|-------------------------------------------------|
B|----------------------6---8-----6---8------------|
G|-7---9------7---9-----7---9-----7---9------------|
D|-5---7------5---7-----5---7-----5---7------------|
A|-6---8------6---8-----6---8-----6---8------------|
E|-------------------------------------------------|



___________________________________________________________



Solo ( 2:24 - 3:08 )


__________________________________________________________



Deviating Discrepencies ( 3:08 - 3:37 )


E|-------------------------------------------------|
B|-------------------------------------------------|
G|-3p0------3p0------5s6s3p0----3p0------3p0-------|
D|----5p3p0----5p3p0---------------5p3p0----5p3p0--|
A|-------------------------------------------------|
E|-------------------------------------------------|




E|-------------------------------------------------|
B|-5s6s3------------------------------10--6--------|
G|-5s6s3-3p0------3p0------5s6s3p0-----------------|
D|----------5p3p0----5p3p0------------8---3--------|
A|-------------------------------------------------|
E|-------------------------------------------------|



__________________________________________________________



Titallating Tritones ( 3:37 - 4:00 )

E|--------------------------------------9h12-------|
B|----------------------------------8h11-----------|
G|-------------------------------6h9---------------|
D|------------5h8-------------5h8------------------|
A|---------4h7-------------4h7---------------------|
E|-3-3--3h6--------3-3--3h6------------------------|



End with the harmony

E|--------------9h12-12h15-------------------------|
B|----------8h11-----------------------------------|
G|-------6h9---------------------------------------|
D|----5h8------------------------------------------|
A|-4h7---------------------------------------------|
E|-------------------------------------------------|



Tapping - End G Harmonic

E|-15p9h12p9p15p9h12p9h15p9h12p9h15p9h12p9---------|
B|-------------------------------------------------|
G|-------------------------------------------<12>--|
D|-------------------------------------------------|
A|-------------------------------------------------|
E|-------------------------------------------------|



__________________________________________________________



Pondering Paradigms ( 4:02 - 4:32 )

E|-------------------------------------------------|
B|-------------------3h4ph3--3h4h6p4p3p0-----------|
G|---3---5---7----8--------5------------5p3p0------|
D|-s5--s7--s8--s10---------------------------5p3p0-|
A|-------------------------------------------------|
E|-------------------------------------------------|



E|-------------------------------------------------|
B|---3---5---7----8--------------------------------|
G|-s5--s7--s8--s10-------------3----3--------------|
D|-----------------------------3----5--------------|
A|-----------------------1-3s5---5--6--------------|
E|-------------------1-3---------------------------|


4:17

E|-------------------------------------------------|
B|-------------------------------------------------|
G|-------------------------------------------------|
D|-------------------------------------------------|
A|-------3-3---------------------------------------|
E|-3-5-6-------------------------------------------|

_________________________________________________________


Chorus ( 4:32 - 4:46 )


then ( 4:46 - 5:03 )

E|-10------8---------------------------------------|
B|----8-10---10-8----------------------------------|
G|-------------------------------------------------|
D|-------------------------------------------------|
A|-------------------------------------------------|
E|-------------------------------------------------|


_________________________________________________________


WAY DOWN ( 5:03 - 5:37 )


E|-------------------------------------------------|
B|-------------------------------------------------|
G|-------------------------------------------------|
D|--------5------s5--s3--s1------------------------|
A|-s5-----3-3-5--s6--s5--s3------------------------|
E|-s3-5-6------------------------------------------|



E|-------------------------------------------------|
B|---------------s8--s6--s4------------------------|
G|---------------s8--s7--s5------------------------|
D|--------5----------------------------------------|
A|-s5-----3-3-5------------------------------------|
E|-s3-5-6------------------------------------------|


_________________________________________________________


Tar Symphony AKA the Spencer Stomp ( 5:38 - 12:24 )


E|-------------------------------------------------|
B|--------------------3-----1----------------------|
G|---0---0---0---0---2-2---2-2---------------------|
D|--0---0---0---0---0---0-0---0--------------------|
A|-------------------------------------------------|
E|-3---5---6---8---2-----2-------------------------|


E|-------------------------------------------------|
B|---------------------6------3--------------------|
G|---0---0---0---0----3-3----5-5-------------------|
D|--0---0---0---0----5---5--4---4------------------|
A|------------------6------5-----------------------|
E|-3---5---6---8-----------------------------------|
Добавлено: 22.06.2013
Вам также может быть интересно:
Другие материалы по этой песне:
  • Аккорды и текст

Страница создана 22.06.2013
http://primanota.ru/the-dead-revolt/half-plant-half-ghost-chords.htm
Привет, Гость.
Предлагаем пройти революционный курс по гитаре.
Подарок от PrimaNota.Ru, забирай!