PrimaNota.ru - самый крупный в мире бесплатный архив песенных текстов, аккордов, табулатур и нот


The Dead Revolt - Chili The Kid - таба, видео

Регистрация Запомнить меня
Войти через:  Facebook Google Twitter Vk Yandex Mail.ru

The Dead Revolt - Chili The Kid - таба, видео

Печатать
Просмотров: 49
Drop D Tuning



Intro
(0:00)

E|-----------------10-7--------------------15-12---|
B|-0---12-12---7---7--7----0---12-12---7---12-12---|
G|-5-----------7---7--7----5-----------7---12-12---|
D|-7---10-10---5---7--7----7---10-10---5---12-12---|
A|-0-----------7-----------0-----------7-----------|
D|-------------------------------------------------|




E|-----------------10-7----------------------------|
B|-0---12-12---7---7--7----0---12-12---7-----------|
G|-5-----------7---7--7----5-----------7-----------|
D|-7---10-10---5---7--7----7---10-10---5-----------|
A|-0-----------7-----------0-----------7-----------|
D|-------------------------------------------------|



____________________________________________________________

Verse
(0:26)
(1:10)


E|-------------------------------------------------|
B|-------------------------------------------------|
G|-5--4--5--7--5--4--5--4--5--7--5--4--------------|
D|-7--6--7--9--7--6--7--6--7--9--7--6--------------|
A|-0-----------------0-----------------------------|
D|-------------------------------------------------|




E|------0-------------3-5-3-0----------------------|
B|---1---3-1-------0----------3-0---8--------------|
G|--2-2-----2-----1-1---------------7---9----------|
D|-3---------3---2------------------6---6----------|
A|----------------------------------8---7----------|
D|-------------------------------------------------|




E|-------------------------------------------------|
B|-------------------------------------------------|
G|-5--4--5--7--5--4--5--4--5--7--5--4--------------|
D|-7--6--7--9--7--6--7--6--7--9--7--6--------------|
A|-0-----------------0-----------------------------|
D|-------------------------------------------------|




E|------0-------------3-5-3-0----------------------|
B|---1---3-1-------0--3-5-3-0--3-0-----------------|
G|--2-2-----2-----1-1----------4-0---2-------------|
D|-3---------3---2-------------------0---2---------|
A|-----------------------------------0---2---------|
D|-----------------------------------3---2---------|


________________________________________________________


Chorus
(0:52)
(1:37)

x4

E|-0-------5---5-----------------------------------|
B|-1---3---6---5-----------------------------------|
G|-2-------7---5-----------------------------------|
D|-2---4---7---7-----------------------------------|
A|-0---3---5---8-----------------------------------|
D|-------------------------------------------------|



E|-------------------------------------------------|
B|-------------------------------------------------|
G|-2-----------------------------------------------|
D|-0---2-------------------------------------------|
A|-0---2-------------------------------------------|
D|-3---2-------------------------------------------|



________________________________________________________

(1:56)


E|-5-5-5-5-5-5--12-5-8-5----------12-5-8-5----------|
B|-5-5-5-5-5-5-----------12-5-8-5----------12-5-8-5-|
G|-5-5-5-5-5-5--------------------------------------|
D|-5-5-5-5-5-5--------------------------------------|
A|--------------------------------------------------|
D|--------------------------------------------------|




E|-12-5-8-5----------12-5-8-5----------------------|
B|----------12-5-8-5----------12-5-8-5-------------|
G|-------------------------------------------------|
D|-------------------------------------------------|
A|-------------------------------------------------|
D|-------------------------------------------------|



E|-5-5-5-5-5-5-------------------------------------|
B|-5-5-5-5-5-5-------------------------------------|
G|-5-5-5-5-5-5--9h10p9-7h9p7-5h7p5-4h5p4-2h4p2p0---|
D|-5-5-5-5-5-5-------------------------------------|
A|-------------------------------------------------|
D|-------------------------------------------------|




E|-5-5-5-5-5-5------------------------------7h8h10-|
B|-5-5-5-5-5-5------------------------7h8h10-------|
G|-5-5-5-5-5-5------------4h5h7-6h7h9--------------|
D|-5-5-5-5-5-5-------4h5h7-------------------------|
A|--------------4h5h7------------------------------|
D|-------------------------------------------------|




E|-5-5-5-5-5-5-------------------------------------|
B|-5-5-5-5-5-5--------3----------------------------|
G|-5-5-5-5-5-5--------2----------------------------|
D|-5-5-5-5-5-5--------0----------------------------|
A|--------------------0----------------------------|
D|--------------------2----------------------------|



_______________________________________________________

(2:23)


E|-------------------------------------------------|
B|-10-8s9-8s9---------8--9s10-9s10-----------------|
G|-------------7s8s7----------------7s8s7----------|
D|-7--5s6-5s6---------5--6s7--6s7------------------|
A|-------------5s6s5----------------5s6s5----------|
D|-------------------------------------------------|




E|-------------------------------------------------|
B|-------------------------------------------------|
G|-7s8-7s8-----------------------------------------|
D|----------7s8s7----------------------------------|
A|-5s6-5s6-----------------------------------------|
D|----------7s8s7----------------------------------|


______________________________________________________

Solo (The whole song is a damn solo, but technically speaking)
(3:02)


E|-----------------------------15----------12------|
B|-15-15b17b15-12---12-13-12-12--12---12-15--------|
G|-------------------------------------------------|
D|-------------------------------------------------|
A|-------------------------------------------------|
D|-------------------------------------------------|



E|-20-19-17---20-19-17---20-19-17---20-19-17-------|
B|---------20---------17---------20---------17-----|
G|-------------------------------------------------|
D|-------------------------------------------------|
A|-------------------------------------------------|
D|-------------------------------------------------|



E|-20-19-17----------------------------------------|
B|---------20-19-17--------------------------------|
G|-----------------19b20b19-17---------------------|
D|-----------------------------19-17---------------|
A|----------------------------------19-17----------|
D|----------------------------------------19-------|


________________________________________________________

(3:27)


E|----------------5--------------------------------|
B|-13---12---11---5--------------------------------|
G|-9----8----7----5--------------------------------|
D|-10---9----8----5--------------------------------|
A|-------------------------------------------------|
D|-------------------------------------------------|




E|-12---11--10---5---------------------------------|
B|---------------5---------------------------------|
G|-9----8---7----5---------------------------------|
D|-10---9---8----5---------------------------------|
A|-------------------------------------------------|
D|-------------------------------------------------|


_______________________________________________________

(3:54)


E|-------------------------------------------------|
B|-------------------------------------------------|
G|-------------------------------------------------|
D|-5-7-7-7-5-7-7-7-5-7-7-7-5-7-7-7-----------------|
A|-------------------------------------------------|
D|-------------------------------------------------|



E|-------------------------------------------------|
B|----------------------------------(7)------------|
G|----------------------------------(7)------------|
D|-5-7-7-7-5-7-7-7-5-7-7-7-5-7-7-7--(7)------------|
A|---0-------0-------0-------0------(7)------------|
D|-------------------------------------------------|



E|-------------------------------------------------|
B|-------------------------------------------------|
G|----------------------------5p0-7p0-5p0----------|
D|-7-7-7-5-7-7-7-5-7-7-7-5-7-----------------------|
A|-7-7-7-5-7-7-7-5-7-7-7-5-7-----------------------|
D|-7-7-7-5-7-7-7-5-7-7-7-5-7-----------------------|



E|----------------------------8p5------------------|
B|-------------------------------8p5---------------|
G|----------------------------------7p5------------|
D|-7-7-7-5-7-7-7-5-7-7-7-5-7-----------7p5---------|
A|-7-7-7-5-7-7-7-5-7-7-7-5-7-----------------------|
D|-7-7-7-5-7-7-7-5-7-7-7-5-7-----------------------|



E|------------------------------X-X-X--------------|
B|------------------------------X-X-X--------------|
G|------------------------------X-X-X--------------|
D|-7-7-7-5-7-7-7-5-7-7-7-5-7----X-X-X--------------|
A|-7-7-7-5-7-7-7-5-7-7-7-5-7----X-X-X--------------|
D|-7-7-7-5-7-7-7-5-7-7-7-5-7----X-X-X--------------|



E|-------------------------------------------------|
B|------------------------------3------------------|
G|------------------------------2------------------|
D|-7-7-7-5-7-7-7-5-7-7-7-5-7----0------------------|
A|-7-7-7-5-7-7-7-5-7-7-7-5-7----0------------------|
D|-7-7-7-5-7-7-7-5-7-7-7-5-7----2------------------|



______________________________________________________

(4:47)

E|-------------------------------------------------|
B|-------------------------------------------------|
G|-------------------------------------------------|
D|-------------------------------------------------|
A|-------------------------------------------------|
D|--7---10---7---5---7---5-------------------------|



E|-------------------------------------------------|
B|-------------------------------------------------|
G|----2--2--2--2--1--------6--6--4--4--7--7--------|
D|-----4--4--4--4--3--------7--7--6--6--9--9-------|
A|-------------------------------------------------|
D|-4-4--4--4--4--3------7-7--7--6--6--9--9--9------|




E|-------------------------------------------------|
B|-------------------------------------------------|
G|---1--4--7--10----4--7--10-13--------------------|
D|--3--6--9--12----3--6--9---12--------------------|
A|----------------2--5--8----11--------------------|
D|-3--6--9--12-------------------------------------|



E|-------------------------------------------------|
B|-------------------------------------------------|
G|-------------------------------------------------|
D|--7---10---7---5---7---5-------------------------|
A|--7---10---7---5---7---5-------------------------|
D|--7---10---7---5---7---5-------------------------|



E|-------------------------------------------------|
B|-------------------------------------------------|
G|----2--2--2--2--1--------6--6--4--4--7--7--------|
D|-----4--4--4--4--3--------7--7--6--6--9--9-------|
A|-------------------------------------------------|
D|-4-4--4--4--4--3------7-7--7--6--6--9--9--9------|



E|-------------------------------------------------|
B|-------------------------------------------------|
G|---1--4--7--10----4--7--10-13--------------------|
D|--3--6--9--12----3--6--9---12--------------------|
A|----------------2--5--8----11--------------------|
D|-3--6--9--12-------------------------------------|


_______________________________________________________

"Idiot"
(5:16)


E|-------------------------------------------------|
B|------0-----------------0-----------------0------|
G|---2---2----1---4----6---6-----4--7----1---1-----|
D|--4-4---4--3---6----7-7---7---6--9----3-3---3----|
A|-------------------------------------------------|
D|-4--------3---6----7---------6--9----3-----------|


"Wanted"
(5:39)

E|-0------------------------------------------------|
B|-5------------------------------------------------|
G|-6------------------------------------------------|
D|-4------------------------------------------------|
A|-5------------------------------------------------|
D|-0------------------------------------------------|


________________________________________________________

(5:43) Drilling the brain of the Temecula ATAT


E|--------------------------------------------------|
B|--------------------------------------------------|
G|-2-2-2-2-2-2-1-1-4---6-6-6-6-6-6-4-4-7------------|
D|-4-4-4-4-4-4-3-3-6---7-7-7-7-7-7-6-6-9------------|
A|--------------------------------------------------|
D|-4-4-4-4-4-4-3-3-6---7-7-7-7-7-7-6-6-9------------|



E|--------------------------------------------------|
B|--------------------------------------------------|
G|-1-1-1-1-1-1--------------------------------------|
D|-3-3-3-3-3-3--------------------------------------|
A|--------------------------------------------------|
D|-3-3-3-3-3-3--------------------------------------|


(6:08)

E|-----------------9--------------------------------|
B|-----------9h10---10------------------------------|
G|-------9-------11---11----------------------------|
D|----11--11----------------------------------------|
A|---9--9---9---------------------------------------|
D|-0------------------------------------------------|

________________________________________________________

"Idiot"
(6:12)

E|--------------------------------------------------|
B|--------------------------------------------------|
G|-2-2-2-2-2-2-1-1-4---6-6-6-6-6-6-4-4-7------------|
D|-4-4-4-4-4-4-3-3-6---7-7-7-7-7-7-6-6-9------------|
A|--------------------------------------------------|
D|-4-4-4-4-4-4-3-3-6---7-7-7-7-7-7-6-6-9------------|



E|--------------------------------------------------|
B|--------------------------------------------------|
G|-1-1-1-1-1-1--------------------------------------|
D|-3-3-3-3-3-3--------------------------------------|
A|--------------------------------------------------|
D|-3-3-3-3-3-3--------------------------------------|


"Wanted"
(6:36)

E|-0------------------------------------------------|
B|-5------------------------------------------------|
G|-6------------------------------------------------|
D|-4------------------------------------------------|
A|-5------------------------------------------------|
D|-0------------------------------------------------|

________________________________________________________

Outro
(6:40)


E|-------------------------------------------------|
B|------0-----------------0-----------------0------|
G|---2---2----1---4----6---6-----4--7----1---1-----|
D|--4-4---4--3---6----7-7---7---6--9----3-3---3----|
A|-------------------------------------------------|
D|-4--------3---6----7---------6--9----3-----------|


End with

E|------0-------------------------------------------|
B|-----5--------------------------------------------|
G|----6---------------------------------------------|
D|---4----------------------------------------------|
A|--5-----------------------------------------------|
D|-0------------------------------------------------| 
Добавлено: 02.06.2013
Другие материалы по этой песне:
  • Аккорды и текст

Страница создана 02.06.2013
http://primanota.ru/the-dead-revolt/chili-the-kid-chords.htm
Привет, Гость.
Предлагаем пройти революционный курс по гитаре.
Подарок от PrimaNota.Ru, забирай!